PrimaNota.ru - самый крупный в мире бесплатный архив песенных текстов, аккордов, табулатур и нот


Fearless Vampire Killers - At War With The Thirst - таба, видео

Регистрация Запомнить меня
Войти через:  Facebook Google Twitter Vk Yandex Mail.ru

Fearless Vampire Killers - At War With The Thirst - таба, видео

Печатать
Просмотров: 110
 --------------------------------------------------------------------------
At war with the thirst- Fearless vampire Killers
---------------------------------------------------------------------------
Tabbed by: Kieran Satchell
E-mail:Kazkieran@hotmail.co.uk
If you wish to use this tab for any editing purposes or guitar tutorials/videos
please reference me as I took many hours making this and feel that I deserve some credit 
for making the tab,
I take no credit for the song however. Sorry, couldn't work out the solo.

Tuning: Standard EADGBE

Lead guitar, Main riff
e|-------------------------------------------------------------------------|
B|-18Brb-16—18p-16-----18brb-16-18p-16-----18brb-16—18p-16-----------------|
G|---------------------------------------------------------20~-------------|
D|------------------22~----------------21~---------------------------------|
A|-------------------------------------------------------------------------|
E|-------------------------------------------------------------------------|

e|------------------------|
B|-18Brb-16—18p-16-18~----|
G|------------------------|X2 after the second time, the guitar slides down
D|------------------------|   quickly from the 18 vibrato (0:26)
A|------------------------|
E|------------------------|

Rhythm guitar:

e|-------------------------------------------------------------------------|
B|-------------------------------------------------------------------------|
G|-------------------------------------------------------------------------|
D|-------------------------------------------------------------------------|
A|-8-8-10-8--8-8-10-8--8-8-10-8--8-8-10-8—6-6-8-6-6-6-8-6-6-6-8-6-6-6-8-6--|
E|-------------------------------------------------------------------------|

e|-------------------------------------------------------------------------|
B|-------------------------------------------------------------------------|
G|-------------------------------------------------------------------------|
D|------8------8------8------8------10------10----x-x-x-x-x-x--------------|
A|--6-6--6-6-6--6-6-6--6-6-6--6--8-8--8-8-8---8---x-x-x-x-x-x--------------|
E|------------------------------------------------x-x-x-x-x-x--------------|


e|-------------------------------------------------------------------------|
B|-------------------------------------------------------------------------|
G|-12-12-12-12-12-12-12-12-12-7-7-7-7-7-7-7-7-7-11-11-11-11-11-11-11-11-11-|
D|-x--x--x--x--x--x--x--x--x--x-x-x-x-x-x-x-x-x-x--x--x--x--x--x--x--x--x--|
A|-10-10-10-10-10-10-10-10-10-5-5-5-5-5-5-5-5-5-9--9--9—-9—-9--9--9--9--9--|
E|-------------------------------------------------------------------------|

e|-------------------------------------------------------------------------|
B|-------------------------------------------------------------------------|
G|-7-7-7-7-7-7-7-7-7-15-15-15-15-15-15-15-15-15-17-17-17-17-17-17-17-17-17-|
D|-x-x-x-x-x-x-x-x-x-x--x--x--x--x--x--x--x--x--x--x--x--x--x--x--x--x--x--|
A|-5-5-5-5-5-5-5-5-5-13-13-13-13-13-13-13-13-13-15-15-15-15-15-15-15-15-15-|
E|-------------------------------------------------------------------------|

Mute this chord until the start of the verse.
e|-------------------------------------------------------------------------|
B|-------------------------------------------------------------------------|
G|-------------------------------------------------------------------------|
D|-10-X-X-X-X-X-X-X-X-X-X-X-X-X-X-X-X-X------------------------------------|
A|-10-X-X-X-X-X-X-X-X-X-X-X-X-X-X-X-X-X------------------------------------|
E|-8--X-X-X-X-X-X-X-X-X-X-X-X-X-X-X-X-X------------------------------------|
VERSE: RYTEHM GUITAR (MUTING BETWEEN NOTES NEEDS TO BE FIGURED OUT YOURSELF)YOU CAN PICK 
IT UP REAL EASY! IT JUST SAVES SPACE ON THE TAB!

“When you go, would you promise me the world...”
e|-------------------------------------------------------------------------|
B|-------------------------------------------------------------------------|
G|----------------------------------8-X-X-X-X-X-X-X-X-X--------------------|
D|-10-X-X-X-X-X-X-X-6-X-X-X-X-X-X-X-8-X-X-X-X-X-X-X-X-X-8-X-X-X-X-X-X-X----|
A|-10-X-X-X-X-X-X-X-6-X-X-X-X-X-X-X-6-X-X-X-X-X-X-X-X-X-8-X-X-X-X-X-X-X----|
E|-8--X-X-X-X-X-X-X-4-X-X-X-X-X-X-X---------------------6-X-X-X-X-X-X-X----|
(*This little section here leads straight into the next part of the verse*)
The number of times I wrote the chords is irrelevant; there are a number of rhythms to 
strum these chords so I didn't quite know the best way to explain it. These are just the 
chords; you must work out the picking pattern yourself.

Lead guitar: background riff (Shane)
e|--------------------------------------------------------------------------|
B|-----------------------11-9-8---------------------------------------------|
G|--10brb-8-10p-8---------------8---10brb-8-10p-8-10~-----------------------|
D|----------------9~--------------------------------------------------------|
A|--------------------------------------------------------------------------|
E|--------------------------------------------------------------------------|

Rhythm, verse: listen to the song to work out strumming pattern
e|--------------------------------------------------------------------------|
B|--------------------------------------------------------------------------|
G|----------------------------------------------------8-8-8-8-8-8-8-8-------|
D|-*-9-X-9-9-*----}-10-10-10-10-10-10-6-6-6-6-6-6-6-6-8-8-8-8-8-8-8-8-------|
A|---9-X-9-9------}-10-10-10-10-10-10-6-6-6-6-6-6-6-6-6-6-6-6-6-6-6-6-------|
E|---7-X-7-7------}-8--8--8--8--8--8--4-4-4-4-4-4-4-4-----------------------|
  DOWN UP DOWN DOWN

e|--------------------------------------------------------------------------|
B|--------------------------------------------------------------------------|
G|--------------------------------------------------------------------------|
D|--8-8-8-8-8-8-8-8--9--x-9--9----------------------------------------------|
A|--8-8-8-8-8-8-8-8--9--x-9--9----------------------------------------------|
E|--6-6-6-6-6-6-6-6--7--x-7--7----------------------------------------------|

CLEAN LEAD GUITAR PRE CHORUS RIFF
e|-------------------------------------------------------------------------|
B|---8--8--8--8--8---6--4—4SLIDE-8-----------------------------------------|
G|----8--8--8--8--8--------------------------------------------------------|
D|-------------------------------------------------------------------------|
A|-------------------------------------------------------------------------|
E|-------------------------------------------------------------------------|




CHORUS- “GOOOOOOO HOME…”              “GOOOOO AWAY….”
e|-------------------------------------------------------------------------|
B|-------------------------------------------------------------------------|
G|-8-8-8-8-8-8-8-8-8-8-8-8-8-8-8-8-12-\--5-5-5-5-5-5-5-5-------------------|
D|-8-8-8-8-8-8-8-8-8-8-8-8-8-8-8-8-12-\--5-5-5-5-5-5-5-5-6-6-6-6-6-6-6-6---|
A|-6-6-6-6-6-6-6-6-5-5-5-5-5-5-5-5-10-\--3-3-3-3-3-3-3-3-6-6-6-6-6-6-6-6---|
E|-------------------------------------------------------4-4-4-4-4-4-4-4---|
Here you sort of change chords in time with the lyrics, listen to the song closely and work it out!


e|-------------------------------------------------------------------------|
B|-------------------------------------------------------------------------|
G|-8-8-8-8-8-8-8-8-8-5-5-5-3-3-3-3-3-3--6-6-6-6-6-6-6-6--8-9---------------|
D|-8-8-8-8-8-8-8-8-8-5-5-5-3-3-3-3-3-3--6-6-6-6-6-6-6-6--8-9---------------|
A|-6-6-6-5-5-5-5-5-5-3-3-3-1-1-1-1-1-1--4-4-4-4-4-4-4-4--6-7---------------|
E|-------------------------------------------------------------------------|
“These demons that I, can't destroy are, sucking at my vains”


VERSE 2: these notes are ALL alternate picked in the same timing as the first verse, 
they are basically the key notes from the chords being alternate picked. Listen to the song 
again if you get stuck
RYTHEM:
e|-------------------------------------------------------------------------|
B|-------------------------------------------------------------------------|
G|-------------------------------------------------------------------------|
D|-------------------------------------------------------------------------|
A|------------------------------------------6-6-6-6-6-6-6-6-6-6-6-6--------|
E|--8-8-8-8-8-8-8-8-8-8-8-4-4-4-4-4-4-4-4-4--------------------------------|

e|-------------------------------------------------------------------------|
B|-------------------------------------------------------------------------|
G|-------------------------------------------------------------------------|
D|-------------------------------------------------------------------------|
A|-------------------------------------------------------------------------|
E|-6-6-6-6-6-6-6-6-6-6-6-6-------------------------------------------------|

RYTHEM: STRUM NORMALLY
e|--------------------------------------------------------------------------|
B|--------------------------------------------------------------------------|
G|----------------------------------------------------8-8-8-8-8-8-8-8-------|
D|-*-9-X-9-9-*----}-10-10-10-10-10-10-6-6-6-6-6-6-6-6-8-8-8-8-8-8-8-8-------|
A|---9-X-9-9------}-10-10-10-10-10-10-6-6-6-6-6-6-6-6-6-6-6-6-6-6-6-6-------|
E|---7-X-7-7------}-8--8--8--8--8--8--4-4-4-4-4-4-4-4-----------------------|

e|--------------------------------------------------------------------------|
B|--------------------------------------------------------------------------|
G|--------------------------------------------------------------------------|
D|--8-8-8-8-8-8-8-8--9--x-9--9----------------------------------------------|
A|--8-8-8-8-8-8-8-8--9--x-9--9----------------------------------------------|
E|--6-6-6-6-6-6-6-6--7--x-7--7----------------------------------------------|


CLEAN LEAD GUITAR PRE CHORUS RIFF
e|-------------------------------------------------------------------------|
B|---8--8--8--8--8---6--4—4SLIDE-8-----------------------------------------|
G|----8--8--8--8--8--------------------------------------------------------|
D|-------------------------------------------------------------------------|
A|-------------------------------------------------------------------------|
E|-------------------------------------------------------------------------|


CHORUS- “GOOOOOOO HOME…”              “GOOOOO AWAY….”
e|-------------------------------------------------------------------------|
B|-------------------------------------------------------------------------|
G|-8-8-8-8-8-8-8-8-8-8-8-8-8-8-8-8-12-\--5-5-5-5-5-5-5-5-------------------|
D|-8-8-8-8-8-8-8-8-8-8-8-8-8-8-8-8-12-\--5-5-5-5-5-5-5-5-6-6-6-6-6-6-6-6---|
A|-6-6-6-6-6-6-6-6-5-5-5-5-5-5-5-5-10-\--3-3-3-3-3-3-3-3-6-6-6-6-6-6-6-6---|
E|-------------------------------------------------------4-4-4-4-4-4-4-4---|

e|-------------------------------------------------------------------------|
B|-------------------------------------------------------------------------|
G|-8-8-8-8-8-8-8-8-8-5-5-5-3-3-3-3-3-3--6-6-6-6-6-6-6-6--8-8-8-8-9-9-9-9---|
D|-8-8-8-8-8-8-8-8-8-5-5-5-3-3-3-3-3-3--6-6-6-6-6-6-6-6--8-8-8-8-9-9-9-9---|
A|-6-6-6-5-5-5-5-5-5-3-3-3-1-1-1-1-1-1--4-4-4-4-4-4-4-4--6-6-6-6-7-7-7-7---|
E|-------------------------------------------------------------------------|
“These demons that I, can't destroy are, sucking at my vains”

repeat chorus again
e|-------------------------------------------------------------------------|
B|-------------------------------------------------------------------------|
G|-8-8-8-8-8-8-8-8-8-8-8-8-8-8-8-8-12-\--5-5-5-5-5-5-5-5-------------------|
D|-8-8-8-8-8-8-8-8-8-8-8-8-8-8-8-8-12-\--5-5-5-5-5-5-5-5-6-6-6-6-6-6-6-6---|
A|-6-6-6-6-6-6-6-6-5-5-5-5-5-5-5-5-10-\--3-3-3-3-3-3-3-3-6-6-6-6-6-6-6-6---|
E|-------------------------------------------------------4-4-4-4-4-4-4-4---|

e|-------------------------------------------------------------------------|
B|-------------------------------------------------------------------------|
G|-8-8-8-8-8-8-8-8-8-5-5-5-3-3-3-3-3-3--6-6-6-6-6-6-6-6--8-8-8-8-9-9-9-9---|
D|-8-8-8-8-8-8-8-8-8-5-5-5-3-3-3-3-3-3--6-6-6-6-6-6-6-6--8-8-8-8-9-9-9-9---|
A|-6-6-6-5-5-5-5-5-5-3-3-3-1-1-1-1-1-1--4-4-4-4-4-4-4-4--6-6-6-6-7-7-7-7---|
E|-------------------------------------------------------------------------|
 “These demons that I, can't destroy are, sucking at my vains”

Lead guitar Shane, Main riff (two harmonies)
e|-------------------------------------------------------------------------|
B|-18Brb-16—18p-16-----18brb-16-18p-16-----18brb-16—18p-16-----------------|
G|---------------------------------------------------------20~-------------|
D|------------------22~----------------21~---------------------------------|
A|-------------------------------------------------------------------------|
E|-------------------------------------------------------------------------|

e|---------------------------------------------------------|
B|-18Brb-16—18p-16-18---20 (after the second time, play 20-| AT THE END)
G|---------------------------------------------------------|
D|---------------------------------------------------------|
A|---------------------------------------------------------|
E|---------------------------------------------------------|


PRE SOLO
*play 15 and hammer on to 17, then pull off back to 15 again. Then play 13 and bend 12 down
e|--------------------------------------------------------------------------|
B|--------------------------------------------------------------------------|
G|--------------------------------------------------------------------------|
D|--18-20brb-18—17~--13-15-17--18-17-15-*15-17hp15-13-12bend down slowly----|
A|--------------------------------------------------------------------------|
E|--------------------------------------------------------------------------|



Final chorus: Rhythm

 “GOOOOOOO HOME…”              “GOOOOO AWAY….”
e|-------------------------------------------------------------------------|
B|-------------------------------------------------------------------------|
G|-8-8-8-8-8-8-8-8-8-8-8-8-8-8-8-8-12-\--5-5-5-5-5-5-5-5-------------------|
D|-8-8-8-8-8-8-8-8-8-8-8-8-8-8-8-8-12-\--5-5-5-5-5-5-5-5-6-6-6-6-6-6-6-6---|
A|-6-6-6-6-6-6-6-6-5-5-5-5-5-5-5-5-10-\--3-3-3-3-3-3-3-3-6-6-6-6-6-6-6-6---|
E|-------------------------------------------------------4-4-4-4-4-4-4-4---|

e|-------------------------------------------------------------------------|
B|-------------------------------------------------------------------------|
G|-8-8-8-8-8-8-8-8-8-5-5-5-3-3-3-3-3-3--6-6-6-6-6-6-6-6--8-8-8-8-9-9-9-9---|
D|-8-8-8-8-8-8-8-8-8-5-5-5-3-3-3-3-3-3--6-6-6-6-6-6-6-6--8-8-8-8-9-9-9-9---|
A|-6-6-6-5-5-5-5-5-5-3-3-3-1-1-1-1-1-1--4-4-4-4-4-4-4-4--6-6-6-6-7-7-7-7---|
E|-------------------------------------------------------------------------|
“These demons that I, can't destroy are, sucking at my veins”

repeat chorus again
e|-------------------------------------------------------------------------|
B|-------------------------------------------------------------------------|
G|-8-8-8-8-8-8-8-8-8-8-8-8-8-8-8-8-12-\--5-5-5-5-5-5-5-5-------------------|
D|-8-8-8-8-8-8-8-8-8-8-8-8-8-8-8-8-12-\--5-5-5-5-5-5-5-5-6-6-6-6-6-6-6-6---|
A|-6-6-6-6-6-6-6-6-5-5-5-5-5-5-5-5-10-\--3-3-3-3-3-3-3-3-6-6-6-6-6-6-6-6---|
E|-------------------------------------------------------4-4-4-4-4-4-4-4---|

e|-------------------------------------------------------------------------|
B|-------------------------------------------------------------------------|
G|-8-8-8-8-8-8-8-8-8-5-5-5-3-3-3-3-3-3--6-6-6-6-6-6-6-6--8-9-10-~----------|
D|-8-8-8-8-8-8-8-8-8-5-5-5-3-3-3-3-3-3--6-6-6-6-6-6-6-6--8-9-10-~----------|
A|-6-6-6-5-5-5-5-5-5-3-3-3-1-1-1-1-1-1--4-4-4-4-4-4-4-4--6-7-8-~-----------|
E|-------------------------------------------------------------------------|
 “These demons that I, can't destroy are, sucking at my veins”

************************************

| /   slide up
| \   slide down
| h   hammer-on
| p   pull-off
(hp   hammer on and pull off
| ~   vibrato
| +   harmonic
| x   Mute note
| b   Bend
| pb  Pre-bend
| br  Bend release
| pbr Pre-bend release
| brb Bend release bend

************************************
Добавлено: 11.09.2013
Другие материалы по этой песне:
  • Аккорды и текст

Страница создана 26.07.2013
http://primanota.ru/fearless-vampire-killers/at-war-with-the-thirst-chords.htm
Привет, Гость.
Предлагаем пройти революционный курс по гитаре.
Подарок от PrimaNota.Ru, забирай!