PrimaNota.ru - самый крупный в мире бесплатный архив песенных текстов, аккордов, табулатур и нот


Fearless Vampire Killers - All Hallows Evil - бас-таба, видео

Регистрация Запомнить меня
Войти через:  Facebook Google Twitter Vk Yandex Mail.ru

Fearless Vampire Killers - All Hallows Evil - бас-таба, видео

Печатать
Просмотров: 42
Intro
G|----------------------------------------------------------------------|
D|----------------------------------------------------------------------|
A|----------------------------------------------------------------------|
D|-/12\-0-------------------------------0---------------4-4-4-4-4-4-4-4-|
        1 + 2 + 3 + 4 + 1 + 2 + 3 + 4 + 1 + 2 + 3 + 4 + 1 + 2 + 3 + 4 +

G|-----------------------------------------------------------------|
D|-----------------------------------------------------------------|
A|---------------------------------------------------------10-\----|
D|-0-------------------------------0---------------r---------------|
   1 + 2 + 3 + 4 + 1 + 2 + 3 + 4 + 1 + 2 + 3 + 4 + 1 + 2 + 3 + 4 +

G|-----------------------------------------------------------------|
D|-----5-------------------------------5-------------------4-5-----|
A|-------5---4-5-6---4-5-6---5-4-3-------5---4-5-6---4-5-6-----5-6-|
D|-0-0-----------------------------0-0-----------------------------|
   1 + 2 + 3 + 4 + 1 + 2 + 3 + 4 + 1 + 2 + 3 + 4 + 1 + 2 + 3 + 4 +

G|-----------------------------------------------------------------|
D|-----5-----------------------------------------------------------|
A|-------5---4-5-6---4-5-6---5-4-3---------------------------------|
D|-0-0-----------------------------7-7-7-7-7-7-7-9-\---------------|
   1 + 2 + 3 + 4 + 1 + 2 + 3 + 4 + 1 + 2 + 3 + 4 + 1 + 2 + 3 + 4 +

Verse 0:21
G|-----------------------------------------------------------------|
D|-----------------------------------------------------------------|
A|-1---1---1-1-1-0---0-0-1---1-3-5---------3-5---------------0-3-5-|
D|---------------------------------0-0-0-0-----0-0---0-0-0---------|
   1 + 2 + 3 + 4 + 1 + 2 + 3 + 4 + 1 + 2 + 3 + 4 + 1 + 2 + 3 + 4 +

G|-----------------------------------------------------------------|
D|-----------------------------------------------------------------|
A|-1---1---1-1-1-0---0-0-1---1-3-5---------3-5-5-5-----0-1-3-5-0-1-|
D|---------------------------------0-0-0-0-----------5-------------|
   1 + 2 + 3 + 4 + 1 + 2 + 3 + 4 + 1 + 2 + 3 + 4 + 1 + 2 + 3 + 4 +

G|-----------------------------------------------------------------|
D|-----------------------------------------------------------------|
A|---1-1---1-1-1-0---0-0-1---1-3-5---------3-5---------------0-3-5-|
D|---------------------------------0---0-------0-0---0-0-0---------|
   1 + 2 + 3 + 4 + 1 + 2 + 3 + 4 + 1 + 2 + 3 + 4 + 1 + 2 + 3 + 4 +

G|---------------------------------------------------------------------------|
D|-----------------------------------------------12-12---12-10---------------|
A|-1---1---1-1-1-0---0-0-1---1-3-5---------10-12---------------12-10-12-10---|
D|---------------------------------0---0-------------------------------------|
   1 + 2 + 3 + 4 + 1 + 2 + 3 + 4 + 1 + 2 + 3  +  4  +  1 +  2  +  3  +  4  +

Pre Chorus 0:42
G|-----------------------------------------------------------------|
D|-----------------------------------------------------------------|
A|-------1-3-----------------------5-----6-6-5-6-------0r----------|
D|-0---0-----0-0-----0-0-0-000-000---8-7---------------------------|
   1 + 2 + 3 + 4 + 1 + 2 + 3 + 4 + 1 + 2 + 3 + 4 + 1 + 2 + 3 + 4 +

G|-----------------------------------------------------------------|
D|-------------------------------------------------------5-7---7---|
A|-------1-3-----------------------------5-7-8-------5-7-----------|
D|-0---0-----0-0-----0-0-0-000-000-0-0-0-------0-0-0---------------|
   1 + 2 + 3 + 4 + 1 + 2 + 3 + 4 + 1 + 2 + 3 + 4 + 1 + 2 + 3 + 4 +

Chorus 0:52
G|-----------------------------------------------------------------|
D|-----------------------------------------------------------------|
A|-5---5-8-5-5-5-8-5-5-5-8-6-5-----5---5-8-5-5-5-8-5-5-8-5-8-5-----|
D|-----------------------------8-7-----------------------------8-7-|
   1 + 2 + 3 + 4 + 1 + 2 + 3 + 4 + 1 + 2 + 3 + 4 + 1 + 2 + 3 + 4 +

G|-----------------------------------------------------------------|
D|-----------------------------------------8---8-----------8-8-8-8-|
A|-------8-------8-------8-6-5-----------8-------8-------8---------|
D|-8---8---8-8-8---8-8-8-------8-7-8---8-----------8-8-8-----------|
   1 + 2 + 3 + 4 + 1 + 2 + 3 + 4 + 1 + 2 + 3 + 4 + 1 + 2 + 3 + 4 +

G|-----------------------------------------------------------------|
D|---------3-------3-----------------------3-----------------------|
A|-------3-------3-------3-3-1-0---------3-------3-3-3-1-1-0-0-----|
D|-3---3-------3-------3---------5-3---3-------3---------------5-5-|
   1 + 2 + 3 + 4 + 1 + 2 + 3 + 4 + 1 + 2 + 3 + 4 + 1 + 2 + 3 + 4 +

G|-----------------------------------------------------------------|
D|---------7-7-7---7-7-7---7-7-7-------------------11--------------|
A|-0-0-0-7-------7-------7-------7-4-4-4-4-4-4-4-4---------------5-|
D|-----------------------------------------------------------------|
   1 + 2 + 3 + 4 + 1 + 2 + 3 + 4 + 1 + 2 + 3 + 4 + 1 + 2 + 3 + 4 +

Interlude 1:12
G|-----------------------------------------------------------------|
D|---------------------------5-------------------------------------|
A|---------------6---------------4---------5-----------------------|
D|---8-7-5-7-6-5-----8-7-5-8---------8-7-5---8-7-12\---------------|
   1 + 2 + 3 + 4 + 1 + 2 + 3 + 4 + 1 + 2 + 3 + 4 + 1 + 2 + 3 + 4 +

Verse 1:17
G|-----------------------------------------------------------------|
D|-----------------------------------------------------------------|
A|-3---1---1-1-1-0---0-0-1---1-3-5---------3-5---------------0-3-5-|
D|---------------------------------0-0-0-0-----0-0---0-0-0---------|
   1 + 2 + 3 + 4 + 1 + 2 + 3 + 4 + 1 + 2 + 3 + 4 + 1 + 2 + 3 + 4 +

G|-----------------------------------------------------------------|
D|-----------------------------------------------------------------|
A|-1---1---1-1-1-0---0-0-1---1-3-5---------3-5---5-\---------------|
D|---------------------------------0-0-0-0-------------------------|
   1 + 2 + 3 + 4 + 1 + 2 + 3 + 4 + 1 + 2 + 3 + 4 + 1 + 2 + 3 + 4 +

G|-----------------------------------------------------------------|
D|-8-7-5-----------------------------------------------------------|
A|-------8-5-3-1-0---0-0-1---1-3-5---------3-5---------------------|
D|---------------------------------0-0-0-0-------0---0-0-0---8-7-5-|
   1 + 2 + 3 + 4 + 1 + 2 + 3 + 4 + 1 + 2 + 3 + 4 + 1 + 2 + 3 + 4 +

G|-----------------------------------------------------------------|
D|-----------------------------------------------7---7-7-7-7-7-7-7-|
A|-----------------------------------------------------------------|
D|-5---5---5---5---5---5---5-6---6-7---7---7-7-7-------------------|
   1 + 2 + 3 + 4 + 1 + 2 + 3 + 4 + 1 + 2 + 3 + 4 + 1 + 2 + 3 + 4 +

Chorus 1:38
G|------------------------------------------------------------------|
D|-----------------------------------------------------5-7-5--------|
A|-5---5-8-5-5-5-8-5-5-5-8-6-5-----5---5-8-5-5-5-8-5-5-------8-5----|
D|-----------------------------8-7-------------------------------10-|
   1 + 2 + 3 + 4 + 1 + 2 + 3 + 4 + 1 + 2 + 3 + 4 + 1 + 2 + 3 + 4 +

G|-----------------------------------------------------------------|
D|---------8-8-----------------------------8-8-------------8-8-8-8-|
A|-------8-------8-------8-6-5-----------8-------8-------8---------|
D|-8---8-----------8-8-8-------8-7-8---8-----------8-8-8-----------|
   1 + 2 + 3 + 4 + 1 + 2 + 3 + 4 + 1 + 2 + 3 + 4 + 1 + 2 + 3 + 4 +

G|-----------------------------------------------------------------|
D|---------3-------3-----------------------3-----------------------|
A|-------3-------3-------3-3-1-0---------3-------3-3-3-1-1-0-0-----|
D|-3---3-------3-------3---------5-3---3-------3---------------5-5-|
   1 + 2 + 3 + 4 + 1 + 2 + 3 + 4 + 1 + 2 + 3 + 4 + 1 + 2 + 3 + 4 +

G|-----------------------------------------6-6-6---6-------6-------|
D|---------7-7-7---7-7-7---7-7-7---------6-------6-----------------|
A|-0-0-0-7-------7-------7-------7-4-4-4-----------------------4---|
D|-----------------------------------------------------------------|
   1 + 2 + 3 + 4 + 1 + 2 + 3 + 4 + 1 + 2 + 3 + 4 + 1 + 2 + 3 + 4 +

Interlude 1:58
G|-----------------------------------------------------------------|
D|-----------------------------------------------------------------|
A|-5-------------------------------5-------------------------------|
D|-----------------------------------------------------------------|
   1 + 2 + 3 + 4 + 1 + 2 + 3 + 4 + 1 + 2 + 3 + 4 + 1 + 2 + 3 + 4 +

G|-----------------------------------------------------------------|
D|-----------------------------------------------------------------|
A|-5-------------------------------4-------------------------------|
D|---------------------------------0-------------------------------|
   1 + 2 + 3 + 4 + 1 + 2 + 3 + 4 + 1 + 2 + 3 + 4 + 1 + 2 + 3 + 4 +

2:08
G|-----------------------------------------------------------------|
D|-----------------------------------------------------------------|
A|-----------------------------------------------------------------|
D|-0-------------------------------0-------------------------------|
   1 + 2 + 3 + 4 + 1 + 2 + 3 + 4 + 1 + 2 + 3 + 4 + 1 + 2 + 3 + 4 +

G|-----------------------------------------------------------------|
D|-----------------------------------------------------------------|
A|---------------------------------------------------------4-4-4-4\|
D|-0---------------------------12-\0-0-0-0-0-0-0-0-0-0-0-0---------|
   1 + 2 + 3 + 4 + 1 + 2 + 3 + 4 + 1 + 2 + 3 + 4 + 1 + 2 + 3 + 4 +

Bridge 2:19
G|-----------------------------------------------------------------|
D|-----------------------------------------------------------------|
A|---r-----5-5-5-5-4-4-4-4-4-0-----1---1-1-1-1-1-------------------|
D|-----------------------------------------------5-5---5-5-5-5-5-5-|
   1 + 2 + 3 + 4 + 1 + 2 + 3 + 4 + 1 + 2 + 3 + 4 + 1 + 2 + 3 + 4 +

G|-----------------------------------------------------------------|
D|-----------------------------------------------------------------|
A|---------5---5---4---4---4-0-----1---1-1-1-1-1-------------------|
D|-x-x-x-x---------------------------------------5-5---5-/-17-\----|
   1 + 2 + 3 + 4 + 1 + 2 + 3 + 4 + 1 + 2 + 3 + 4 + 1 + 2 + 3 + 4 +

2:29
G|-----------------------------------------------------------------|
D|-----------------------------------------------------------------|
A|-----------------------------------------------------------------|
D|-5-r---5-5-r---5-5-r---5-5-r-5-5-4-r---4-4-r---4-4-r---4-4-r-4-4-|
   1 + 2 + 3 + 4 + 1 + 2 + 3 + 4 + 1 + 2 + 3 + 4 + 1 + 2 + 3 + 4 +

G|-----------------------------------------------------------------|
D|-----------------------------------------------------------------|
A|-----------------------------------------------------------------|
D|-3-r---3-3-r---3-3-r---3-3-r-3-3-7-r-7-7-r-7-7-r-7-7-r-7-7-r-7-\-|
   1 + 2 + 3 + 4 + 1 + 2 + 3 + 4 + 1 + 2 + 3 + 4 + 1 + 2 + 3 + 4 +

Chorus 2:39
G|-----------------------------------------------------------------|
D|-----------------------------------------------------------------|
A|---------------------------------------------------------13--\---|
D|-\---r-----------------------------------------------------------|
   1 + 2 + 3 + 4 + 1 + 2 + 3 + 4 + 1 + 2 + 3 + 4 + 1 + 2 + 3 + 4 +

G|-----------------------------------------------------------------|
D|---------------------------------------------------------8---8---|
A|-1---1---1---1---3---3---3---3---5---5---5---5---8---8-----------|
D|-----------------------------------------------------------------|
   1 + 2 + 3 + 4 + 1 + 2 + 3 + 4 + 1 + 2 + 3 + 4 + 1 + 2 + 3 + 4 +

2:49
G|-----------------------------------------------------------------|
D|---------3-------3-----------------------3-----------------------|
A|-------3-------3-------3-3-1-0---------3-------3-3-3-1-1-0-0-----|
D|-3---3-------3-------3---------5-3---3-------3---------------5-5-|
   1 + 2 + 3 + 4 + 1 + 2 + 3 + 4 + 1 + 2 + 3 + 4 + 1 + 2 + 3 + 4 +

G|-------------------------------------------------------6-------6-|
D|---------7-------7-------5-------------5-------5-5-5-5---5-5-5---|
A|-------7-------7-------7---8-7-5-4-4-4---4-4-4-------------------|
D|-7---7-------7-------7-------------------------------------------|
   1 + 2 + 3 + 4 + 1 + 2 + 3 + 4 + 1 + 2 + 3 + 4 + 1 + 2 + 3 + 4 +

G|---------------------------------|
D|-5-5-5-5-5-5-5-5-5-5-5-5-5-5-5-5-|
A|---------------------------------|
D|---------------------------------|
   1 + 2 + 3 + 4 + 1 + 2 + 3 + 4 + 

Outro 3:02
G|-----------------------------------------------------------------|
D|-----------------------------------------------------------------|
A|-4-0-----------6---------------6-4-------------5-----------------|
D|-----5-7-5-7-5-----5-7-5-5-7-8-------7-5-5-7-5-------------------|
   1 + 2 + 3 + 4 + 1 + 2 + 3 + 4 + 1 + 2 + 3 + 4 + 1 + 2 + 3 + 4 +

G|-----------------------------------------------------------------|
D|-----------------------------------------------------------------|
A|-4-0-----------6---------------6-4-------------5-----------------|
D|-----5-7-5-7-5-----5-7-5-5-7-8-------7-5-5-7-5-----0-0---0---0---|
   1 + 2 + 3 + 4 + 1 + 2 + 3 + 4 + 1 + 2 + 3 + 4 + 1 + 2 + 3 + 4 +

3:12
G|-----------------------------------------------------------------|
D|-----------------------------------------------------------------|
A|-----------5---5-6---------6---6-4---------4---4-5---------4-5-6-|
D|-0-0-0-0-0---0-----0-0-0-0---0-----0-0-0-0---0-----0-0-0-0-------|
   1 + 2 + 3 + 4 + 1 + 2 + 3 + 4 + 1 + 2 + 3 + 4 + 1 + 2 + 3 + 4 +

G|-----------------------------------------------------------------|
D|-----------------------------------------------------------------|
A|-5---------5---5-6---------6---6-4-r-4-r-4-4-4-5-r-5-------------|
D|---0-0-0-0---0-----0-0-0-0---0-----------------------0-r---------|
   1 + 2 + 3 + 4 + 1 + 2 + 3 + 4 + 1 + 2 + 3 + 4 + 1 + 2 + 3 + 4 +
Tabbed by Dave Vucko
Добавлено: 15.12.2015
Другие материалы по этой песне:
  • Аккорды и текст

Страница создана 15.12.2015
http://primanota.ru/fearless-vampire-killers/all-hallows-evil-chords.htm
Привет, Гость.
Предлагаем пройти революционный курс по гитаре.
Подарок от PrimaNota.Ru, забирай!