PrimaNota.ru - самый крупный в мире бесплатный архив песенных текстов, аккордов, табулатур и нот


Feared - My Grief My Sorrow - таба, видео

Регистрация Запомнить меня
Войти через:  Facebook Google Twitter Vk Yandex Mail.ru

Feared - My Grief My Sorrow - таба, видео

Печатать
Просмотров: 85
-----------------------------------------------------------------------------------------
|                               FEARED - MY GRIEF, MY SORROW                            |
|                                   Album: SYNDER (2015)                                |
-----------------------------------------------------------------------------------------
                              All credits goes to Peter Boyle
                            pdf version: http://we.tl/25ov8AjQ6b
                  playthrough: https://www.youtube.com/watch?v=5Y74k9a7Egc

                                  Tuning: 6 string CGCFAD
                                                        
**************************************GUITAR NOTATIONS***********************************
*                                                                                       *
*                               | *   palm mute           |                             *
*                               | s   slide               |                             *
*                               | s\  slide downwards     |                             *
*                               | /s  slide in from below |                             *
*                               | h   hammer-on           |                             *
*                               | p   pull-off            |                             *
*                               | ~   vibrato             |                             *
*                               | x   Mute note           |                             *
*                               | b   bend                |                             *
*                               | r   release             |                             *
*                               | pb  pre-bend            |                             *
*                               | ..  let ring            |                             *
*                                                                                       *
*****************************************************************************************

-----------------------------------------------------------------------------------------
|                                    INTRO (00:00-01:47)                                |
-----------------------------------------------------------------------------------------

Guitars 1 and 2 (w/ dist)

D|------------------------|--------|------|------|
A|------------------------|--------|------|------|
F|------------------------|--------|------|------|
C|-7-s6-----6-s5-----4-s5-|-0------|------|------|
G|-8-s7--0--7-s6--0--5-s6-|-0------|------|------|
C|-------0--------0-------|-0------|------|------|
         *        * 
D|------------------------|--------|------|------|
A|------------------------|--------|------|------|
F|------------------------|--------|------|------|
C|-7-s6-----6-s5-----4-s5-|-4---3--|------|------|
G|-8-s7--0--7-s6--0--5-s6-|-4---3--|------|------|
C|-------0--------0-------|-4---3--|------|------|
         *        *
D|--------|--------|--------|--------|
A|--------|--------|--------|--------|
F|--------|--------|--------|--------|
C|---1----|-0------|-0------|-0------|
G|---1----|-0------|-0------|-0------|
C|---1----|-0------|-0------|-0------|
                                                                  slide up and down
D|-------------------------|--------|-------|-------------------|--------|
A|-------------------------|--------|-------|-------------------|--------|
F|-------------------------|--------|-------|-------------------|--------|
C|-7-s6-----6-s5-----4-s5--|-3---4--|-------|-4--3--------3--2--|--------|
G|-8-s7--0--7-s6--0--5-s6--|-3---4--|-------|-4--3--------3--2--|-1s9s1--|
C|-------0--------0--------|-3---4--|-------|-4--3--------3--2--|-1s9s1--|
         *        *              
D|-----------------------|----------------------|-----------------------|----------------------|
A|-----------------------|----------------------|-----------------------|----------------------|
F|-----------------------|----------------------|-----------------------|----------------------|
C|-------0------------0--|----------------------|-------0------------0--|------4-----4-h5-s7---|
G|-0-h1--0---0--0--0--0--|---5-h6--3--6-s8-s6~~~|-0-h1--0---0--0--0--0--|---5-----5------------|
C|-0-h1--0---0--0--0--0--|----------------------|-0-h1--0---0--0--0--0--|----------------------|
             *  *  *                                        *  *  *
D|-----------------------|----------------------|-----------------------|----------------------|
A|-----------------------|----------------------|-----------------------|----------------------|
F|-----------------------|----------------------|-----------------------|----------------------|
C|-------0------------0--|----------------------|-------0------------6--|---3---4-----4--3--1--|
G|-0-h1--0---0--0--0--0--|---5-h6--3--6-s8-s6~~~|-0-h1--0---0--0--0--6--|---3---4-----4--3--1--|
C|-0-h1--0---0--0--0--0--|----------------------|-0-h1--0---0--0--0--6--|---3---4-----4--3--1--|

D|-----------------------|----------------------|-----------------------|----------------------|
A|-----------------------|----------------------|-----------------------|----------------------|
F|-----------------------|----------------------|-----------------------|----------------------|
C|-------0------------0--|----------------------|-------0------------0--|------4-----4-h5-s7---|
G|-0-h1--0---0--0--0--0--|---5-h6--3--6-s8-s6~~~|-0-h1--0---0--0--0--0--|---5-----5------------|
C|-0-h1--0---0--0--0--0--|----------------------|-0-h1--0---0--0--0--0--|----------------------|
             *  *  *                                        *  *  *                   ..............
D|-----------------------|----------------------|-----------------------|---------------------------|
A|-----------------------|----------------------|-----------------------|---------------------------|
F|-----------------------|----------------------|-----------------------|---------------------------|
C|-------0------------0--|----------------------|-------0------------0--|-------------10-----10-----|
G|-0-h1--0---0--0--0--0--|---5-h6--3--6-s8-s6~~~|-0-h1--0---0--0--0--0--|---0--5-s6-------6------6--|
C|-0-h1--0---0--0--0--0--|----------------------|-0-h1--0---0--0--0--0--|---------------------------|

Guitar 3 (w/ overdrive)

1 bar empty, then: 

   ..................................................................
D|----------------|----------------|----------------|----------------|
A|----------------|----------------|----------------|----------------|
F|----------------|----------------|----------------|----------------|
C|---------0------|---------0------|---------0------|---------0------|
G|-----0-------0--|-----0-------0--|-----0-------0--|-----0-------0--|
C|-0--------------|-0--------------|-0--------------|-0--------------|
  ...................................................................
D|----------------|----------------|----------------|----------------|
A|----------------|----------------|----------------|----------------|
F|----------------|---------0------|----------------|----------------|
C|---------0------|-----0-------0--|---------0------|----------------|
G|-----4-------3--|-3--------------|-----3-------3--|-----3-------1--|
C|-4--------------|----------------|-3--------------|-3-------1------|
  ...................................................................
D|----------------|----------------|----------------|----------------|
A|----------------|----------------|----------------|----------------|
F|----------------|----------------|----------------|----------------|
C|---------0------|---------0------|---------0------|---------0------|
G|-----0-------0--|-----0-------0--|-----0-------0--|-----0-------0--|
C|-0--------------|-0--------------|-0--------------|-0--------------|
  .................................
D|----------------|----------------|
A|----------------|----------------|
F|----------------|---------0------|
C|---------0------|-----0-------0--|
G|-----3----------|-4--------------|
C|-3-----------4--|----------------|

-----------------------------------------------------------------------------------------
|                                   VERSE (01:47-02:09)                                 |
-----------------------------------------------------------------------------------------

Guitar 1 (w/ dist)

D|-----------------------|-----------------------|
A|-----------------------|-----------------------|
F|-----------------------|-----------------------|
C|-0---------------------|-----------------------|
G|-0--0--0--0---0--0--0--|-0--0-h1--1s3s1--0-h1--|
C|-0--0--0--0---0--0--0--|-0--0-h1--1s3s1--0-h1--|
      *  *  *   *  *  *    * 
D|-----------------------|----------------------|
A|-----------------------|----------------------|
F|-----------------------|----------------------|
C|-0---------------------|----------------------|
G|-0--0--0--0---0--0--0--|-0--0-h1--3-p1--4-p1--|
C|-0--0--0--0---0--0--0--|-0--0-h1--3-p1--4-p1--|
      *  *  *   *  *  *    *
D|-------------------------|------------------------|
A|-------------------------|------------------------|
F|-6--6--6--6-----6--6--6--|---6--6--6-----6--6--6--|
C|-4--4--4--4-----4--4--4--|---4--4--4-----4--4--4--|
G|-6--6--6--6-----6--6--6--|---6--6--6-----6--6--6--|
C|-4--4--4--4-----4--4--4--|---4--4--4-----4--4--4--|
 
D|-------------------------|------------------------|
A|-------------------------|------------------------|
F|-7--7--7--7-----7--7--7--|---7--7--7--------------|
C|-4--4--4--4-----4--4--4--|---4--4--4--5---4---1---|
G|-5--5--5--5-----5--5--5--|---5--5--5--5---4---1---|
C|-0--0--0--0-----0--0--0--|---0--0--0--5---4---1---|

D|-----------------------|-----------------------|
A|-----------------------|-----------------------|
F|-----------------------|-----------------------|
C|-0---------------------|-----------------------|
G|-0--0--0--0---0--0--0--|-0--0-h1--1s3s1--0-h1--|
C|-0--0--0--0---0--0--0--|-0--0-h1--1s3s1--0-h1--|
      *  *  *   *  *  *    * 
D|-----------------------|----------------------|
A|-----------------------|----------------------|
F|-----------------------|----------------------|
C|-0---------------------|----------------------|
G|-0--0--0--0---0--0--0--|-0--0-h1--3-p1--4-p1--|
C|-0--0--0--0---0--0--0--|-0--0-h1--3-p1--4-p1--|
      *  *  *   *  *  *    *
D|-------------------------|------------------------|
A|-------------------------|------------------------|
F|-6--6--6--6-----6--6--6--|---6--6--6-----6--6--6--|
C|-4--4--4--4-----4--4--4--|---4--4--4-----4--4--4--|
G|-6--6--6--6-----6--6--6--|---6--6--6-----6--6--6--|
C|-4--4--4--4-----4--4--4--|---4--4--4-----4--4--4--|

D|-------------------------|-----------------------|
A|-------------------------|-----------------------|
F|-7--7--7--7-----7--7--7--|---7--7--7-------------|
C|-4--4--4--4-----4--4--4--|---4--4--4-------------|
G|-5--5--5--5-----5--5--5--|---5--5--5-------------|
C|-0--0--0--0-----0--0--0--|---0--0--0--5--3--6s\--|

Guitar 2 (w/ dist)

D|-----------------------|-----------------------|
A|-----------------------|-----------------------|
F|-----------------------|-----------------------|
C|-0---------------------|-----------------------|
G|-0--0--0--0---0--0--0--|-0--0-h1--1s3s1--0-h1--|
C|-0--0--0--0---0--0--0--|-0--0-h1--1s3s1--0-h1--|
      *  *  *   *  *  *    * 
D|-----------------------|----------------------|
A|-----------------------|----------------------|
F|-----------------------|----------------------|
C|-0---------------------|----------------------|
G|-0--0--0--0---0--0--0--|-0--0-h1--3-p1--4-p1--|
C|-0--0--0--0---0--0--0--|-0--0-h1--3-p1--4-p1--|
      *  *  *   *  *  *    *
D|-------------------------|------------------------|
A|-------------------------|------------------------|
F|-6--6--6--6-----6--6--6--|---6--6--6-----6--6--6--|
C|-4--4--4--4-----4--4--4--|---4--4--4-----4--4--4--|
G|-4--4--4--4-----4--4--4--|---4--4--4-----4--4--4--|
C|-4--4--4--4-----4--4--4--|---4--4--4-----4--4--4--|
 
D|-------------------------|------------------------|
A|-------------------------|------------------------|
F|-7--7--7--7-----7--7--7--|---7--7--7--------------|
C|-3--3--3--3-----3--3--3--|---3--3--3--5---4---1---|
G|-3--3--3--3-----3--3--3--|---3--3--3--5---4---1---|
C|-3--3--3--3-----3--3--3--|---3--3--3--5---4---1---|

D|-----------------------|-----------------------|
A|-----------------------|-----------------------|
F|-----------------------|-----------------------|
C|-0---------------------|-----------------------|
G|-0--0--0--0---0--0--0--|-0--0-h1--1s3s1--0-h1--|
C|-0--0--0--0---0--0--0--|-0--0-h1--1s3s1--0-h1--|
      *  *  *   *  *  *    * 
D|-----------------------|----------------------|
A|-----------------------|----------------------|
F|-----------------------|----------------------|
C|-0---------------------|----------------------|
G|-0--0--0--0---0--0--0--|-0--0-h1--3-p1--4-p1--|
C|-0--0--0--0---0--0--0--|-0--0-h1--3-p1--4-p1--|
      *  *  *   *  *  *    *
D|-------------------------|------------------------|
A|-------------------------|------------------------|
F|-6--6--6--6-----6--6--6--|---6--6--6-----6--6--6--|
C|-4--4--4--4-----4--4--4--|---4--4--4-----4--4--4--|
G|-4--4--4--4-----4--4--4--|---4--4--4-----4--4--4--|
C|-4--4--4--4-----4--4--4--|---4--4--4-----4--4--4--|

D|-------------------------|-----------------------|
A|-------------------------|-----------------------|
F|-7--7--7--7-----7--7--7--|---7--7--7-------------|
C|-3--3--3--3-----3--3--3--|---3--3--3-------------|
G|-3--3--3--3-----3--3--3--|---3--3--3-------------|
C|-3--3--3--3-----3--3--3--|---3--3--3--5--3--6s\--|
                                      
-----------------------------------------------------------------------------------------
|                                 PRE-CHORUS (02:09-02:20)                              |
-----------------------------------------------------------------------------------------

Guitars 1 and 2 (w/ dist)

D|-----------------------|------------------------|
A|-----------------------|------------------------|
F|-----------------------|------------------------|
C|-0----------7----------|-6----------------------|
G|-0---0-0-0--7---0-0-0--|-6---0-0-0--3--6--5--3--|
C|-0---0-0-0--7---0-0-0--|-6---0-0-0--3--6--5--3--|
       * * *      * * *        * * *  *  *  *  *
D|-----------------------|------------------------|
A|-----------------------|------------------------|
F|-----------------------|------------------------|
C|-0----------7----------|-6----------6-s9--9-s6--|
G|-0---0-0-0--7---0-0-0--|-6---0-0-0--x--x--x--x--|
C|-0---0-0-0--7---0-0-0--|-6---0-0-0--6-s9--9-s6--|
       * * *      * * *        * * * 
D|-----------------------|------------------------|
A|-----------------------|------------------------|
F|-----------------------|------------------------|
C|-0----------7----------|-6----------------------|
G|-0---0-0-0--7---0-0-0--|-6---0-0-0--3--6--5--3--|
C|-0---0-0-0--7---0-0-0--|-6---0-0-0--3--6--5--3--|
       * * *      * * *        * * *  *  *  *  *
D|-----------------------|------------------------|
A|-----------------------|------------------------|
F|-----------------------|------------------------|
C|-0----------7----------|-6----------4---3---2---|
G|-0---0-0-0--7---0-0-0--|-6---0-0-0--4---3---2---|
C|-0---0-0-0--7---0-0-0--|-6---0-0-0--4---3---2---|
       * * *      * * *        * * * 
-----------------------------------------------------------------------------------------
|                                    CHORUS (02:20-02:53)                               |
-----------------------------------------------------------------------------------------

Guitars 1 and 2 (w/ dist)

D|-----------------------------|-----------------------------|
A|-----------------------------|-----------------------------|
F|-----------------------------|-----------------------------|
C|-----------------------------|-----------------------------|
G|-1-1-1-1-1-1-1-1-1-----------|-1-1-1-1-1-1-1-1-1-----------|\
C|-1-1-1-1-1-1-1-1-1-----------|-1-1-1-1-1-1-1-1-1-----------| \
   * * * * * * * * *             * * * * * * * * *              x4
D|-----------------------------|-----------------------------| /
A|-----------------------------|-----------------------------|/
F|-----------------------------|-----------------------------|
C|-----------------------------|-----------------------------|
G|-0-0-0-0-0-0-0-0-5-h6--4-h8--|-0-0-0-0-0-0-0-0-5-h6--4-h8--|
C|-0-0-0-0-0-0-0-0-------------|-0-0-0-0-0-0-0-0-------------|
   * * * * * * * *               * * * * * * * *
D|-----------------------|----------------------|-----------------------|----------------------|
A|-----------------------|----------------------|-----------------------|----------------------|
F|-----------------------|----------------------|-----------------------|----------------------|
C|-------0------------0--|----------------------|-------0------------0--|------4-----4-h5-s7---|
G|-0-h1--0---0--0--0--0--|---5-h6--3--6-s8-s6~~~|-0-h1--0---0--0--0--0--|---5-----5------------|
C|-0-h1--0---0--0--0--0--|----------------------|-0-h1--0---0--0--0--0--|----------------------|
             *  *  *                                        *  *  *
D|-----------------------|----------------------|-----------------------|----------------------|
A|-----------------------|----------------------|-----------------------|----------------------|
F|-----------------------|----------------------|-----------------------|----------------------|
C|-------0------------0--|----------------------|-------0------------6--|---3---4-----4--3--1--|
G|-0-h1--0---0--0--0--0--|---5-h6--3--6-s8-s6~~~|-0-h1--0---0--0--0--6--|---3---4-----4--3--1--|
C|-0-h1--0---0--0--0--0--|----------------------|-0-h1--0---0--0--0--6--|---3---4-----4--3--1--|

-----------------------------------------------------------------------------------------
|                                   VERSE 2 (02:53-03:04)                               |
-----------------------------------------------------------------------------------------

Guitar 1 (w/ dist)

D|-----------------------|-----------------------|
A|-----------------------|-----------------------|
F|-----------------------|-----------------------|
C|-0---------------------|-----------------------|
G|-0--0--0--0---0--0--0--|-0--0-h1--1s3s1--0-h1--|
C|-0--0--0--0---0--0--0--|-0--0-h1--1s3s1--0-h1--|
      *  *  *   *  *  *    * 
D|-----------------------|----------------------|
A|-----------------------|----------------------|
F|-----------------------|----------------------|
C|-0---------------------|----------------------|
G|-0--0--0--0---0--0--0--|-0--0-h1--3-p1--4-p1--|
C|-0--0--0--0---0--0--0--|-0--0-h1--3-p1--4-p1--|
      *  *  *   *  *  *    *
D|-------------------------|------------------------|
A|-------------------------|------------------------|
F|-6--6--6--6-----6--6--6--|---6--6--6-----6--6--6--|
C|-4--4--4--4-----4--4--4--|---4--4--4-----4--4--4--|
G|-6--6--6--6-----6--6--6--|---6--6--6-----6--6--6--|
C|-4--4--4--4-----4--4--4--|---4--4--4-----4--4--4--|
 
D|-------------------------|------------------------|
A|-------------------------|------------------------|
F|-7--7--7--7-----7--7--7--|---7--7--7--------------|
C|-4--4--4--4-----4--4--4--|---4--4--4--5---4---1---|
G|-5--5--5--5-----5--5--5--|---5--5--5--5---4---1---|
C|-0--0--0--0-----0--0--0--|---0--0--0--5---4---1---|

Guitar 2 (w/ dist)

D|-----------------------|-----------------------|
A|-----------------------|-----------------------|
F|-----------------------|-----------------------|
C|-0---------------------|-----------------------|
G|-0--0--0--0---0--0--0--|-0--0-h1--1s3s1--0-h1--|
C|-0--0--0--0---0--0--0--|-0--0-h1--1s3s1--0-h1--|
      *  *  *   *  *  *    * 
D|-----------------------|----------------------|
A|-----------------------|----------------------|
F|-----------------------|----------------------|
C|-0---------------------|----------------------|
G|-0--0--0--0---0--0--0--|-0--0-h1--3-p1--4-p1--|
C|-0--0--0--0---0--0--0--|-0--0-h1--3-p1--4-p1--|
      *  *  *   *  *  *    *
D|-------------------------|------------------------|
A|-------------------------|------------------------|
F|-6--6--6--6-----6--6--6--|---6--6--6-----6--6--6--|
C|-4--4--4--4-----4--4--4--|---4--4--4-----4--4--4--|
G|-4--4--4--4-----4--4--4--|---4--4--4-----4--4--4--|
C|-4--4--4--4-----4--4--4--|---4--4--4-----4--4--4--|
 
D|-------------------------|------------------------|
A|-------------------------|------------------------|
F|-7--7--7--7-----7--7--7--|---7--7--7--------------|
C|-3--3--3--3-----3--3--3--|---3--3--3--5---4---1---|
G|-3--3--3--3-----3--3--3--|---3--3--3--5---4---1---|
C|-3--3--3--3-----3--3--3--|---3--3--3--5---4---1---|

-----------------------------------------------------------------------------------------
|                                 PRE-CHORUS 2 (03:04-03:14)                            |
-----------------------------------------------------------------------------------------
                                      same as PRE-CHORUS
-----------------------------------------------------------------------------------------
|                                   CHORUS 2 (03:14-03:35)                              |
-----------------------------------------------------------------------------------------

Guitars 1 and 2 (w/ dist)

D|-----------------------------|-----------------------------|
A|-----------------------------|-----------------------------|
F|-----------------------------|-----------------------------|
C|-----------------------------|-----------------------------|
G|-1-1-1-1-1-1-1-1-1-----------|-1-1-1-1-1-1-1-1-1-----------|\
C|-1-1-1-1-1-1-1-1-1-----------|-1-1-1-1-1-1-1-1-1-----------| \
   * * * * * * * * *             * * * * * * * * *              x4
D|-----------------------------|-----------------------------| /
A|-----------------------------|-----------------------------|/
F|-----------------------------|-----------------------------|
C|-----------------------------|-----------------------------|
G|-0-0-0-0-0-0-0-0-5-h6--4-h8--|-0-0-0-0-0-0-0-0-5-h6--4-h8--|
C|-0-0-0-0-0-0-0-0-------------|-0-0-0-0-0-0-0-0-------------|
   * * * * * * * *               * * * * * * * *

-----------------------------------------------------------------------------------------
|                                     SOLO (03:35-04:00)                                |
-----------------------------------------------------------------------------------------

Guitars 1 and 2 (w/ dist) - RHYTHM
                               .....................
D|------------------------|-------------------------|------------------------|-------------------------|
A|------------------------|-------------------------|------------------------|-------------------------|
F|------------------------|-------6-----6-----6-----|------------------------|-------------------------|
C|-7--------5--------8----|----8-----8-----8-----8--|-7--------5--------8----|----8--7--5-----5--7--8--|
G|----0--0-----0--0-----0-|-0-----------------------|----0--0-----0--0-----0-|-0-----------6-----------|
C|------------------------|-------------------------|------------------------|-------------------------|
      *  *     *  *     *   *                            *  *     *  *     *   *  
D|------------------------|-------------------------|------------------------|-------------------------|
A|------------------------|-------------------------|------------------------|-------------------------|
F|------------------------|-------------------------|------------------------|-------------------------|
C|----7--------5--------8-|-------11s8--------11s8--|----7--------5--------8-|-------------------------|
G|-0--5--0--0--3--0--0--6-|-0--0--9-s6--0--0--9-s6--|-0--5--0--0--3--0--0--6-|-0--8--7--5--4--5--7--8--|
C|-0-----0--0-----0--0----|-0--0--------0--0--------|-0-----0--0-----0--0----|-0--8--7--5--4--5--7--8--|
   *     *  *     *  *      *  *        *  *          *     *  *     *  *      * 
D|------------------------|-------------------------|------------------------|-------------------------|
A|------------------------|-------------------------|------------------------|-------------------------|
F|------------------------|-------6-----6-----6-----|------------------------|-------------------------|
C|-7--------5--------8----|----8-----8-----8-----8--|-7--------5--------8----|----8--7--5-----5--------|
G|----0--0-----0--0-----0-|-0-----------------------|----0--0-----0--0-----0-|-0-----------6-----6--5--|
C|------------------------|-------------------------|------------------------|-------------------------|
      *  *     *  *     *   *                            *  *     *  *     *   *  
D|------------------------|-------------------------|------------------------|-------------------------|
A|------------------------|-------------------------|------------------------|-------------------------|
F|------------------------|-------------------------|------------------------|-------------------------|
C|----3-----5-----3-----5-|----3-----5-----3-----5--|----2-----5-----2-----5-|----2-----5-----2-----5--|
G|-1-----1-----1-----1----|-2-----2-----2-----2-----|-3-----3-----3-----3----|-4-----4-----4-----4-----|
C|------------------------|-------------------------|------------------------|-------------------------|
   *     *     *     *      *     *     *     *       *     *     *     *      *     *     *     *
D|-----------------|---------------|
A|-----------------|---------------|
F|-----------------|---------------|
C|-/s4----3----2---|-----2----1----|
G|-/s4----3----2---|-----2----1----|
C|-/s4----3----2---|-----2----1----|
                         *    *

Guitar 3 (w/ dist and delay)

D|-------------------------|------------------------|-------------------------|-------------------------|
A|-------------------------|------------------------|-------------------------|-------------------------|
F|-----------7-----------6-|------------------------|-----------7-----------9-|----------9-h10-p9-p7-h9-|
C|-7-7-5--7-----7--5--7----|-7--5--7--5--7--8--7--5-|-7-7-5--7-----7--5--7----|-7--5--7-----------------|
G|-------------------------|------------------------|-------------------------|-------------------------|
C|-------------------------|------------------------|-------------------------|-------------------------|
   * * *  *     *  *  *      *  *  *  *               * * *  *     *  *  *
D|--------------------|--------------------------------|------------------------|
A|--------------------|--------------------------------|------------------------|
F|-/s11----12--15-p12-|-14-p12--11-h12------11---------|---------------11-------|
C|--------------------|-----------------13------12-h13-|-12~~~12-13-15----15-13-|
G|--------------------|--------------------------------|------------------------|
C|--------------------|--------------------------------|------------------------|
                                                              *  *  *  *  *  *
D|----------------------------------|-12-----12---|----10----|-------|-10-----|
A|-------------------11h15p11-------|-15b--pb15---|--r-13b---|pb13---|-13b----|
F|----------11-12-14----------14----|-------------|----------|-------|--------|
C|-12-13-15----------------------14-|-------------|----------|-------|--------|
G|----------------------------------|-------------|----------|-------|--------|
C|----------------------------------|-------------|----------|-------|--------|
   *  *  *  *  *  *           *  *
D|---------------------------|-15-----------------------------------|
A|---15--18--17~~~15--17--18-|-----18--17--15--17-p15h17p15-----15--|
F|--x------------------------|------------------------------18------|
C|-x-------------------------|--------------------------------------|
G|---------------------------|--------------------------------------|
C|---------------------------|--------------------------------------|

D|---------------------------------------|-----------------------------------|
A|-18--17--15--17-15s14--15-14s12--14-12-|s10--12-10s9--10-9-s7--9--7-s5--7--|
F|---------------------------------------|-----------------------------------|
C|---------------------------------------|-----------------------------------|
G|---------------------------------------|-----------------------------------|
C|---------------------------------------|-----------------------------------|

D|---------|--------|------|------|
A|-5h7~~~~~|~~~6s7--|------|------|
F|---------|--------|-6~~~~|~~~~--|
C|---------|--------|------|------|
G|---------|--------|------|------|
C|---------|--------|------|------|

-----------------------------------------------------------------------------------------
|                                    BRIDGE (04:00-05:13)                               |
-----------------------------------------------------------------------------------------

Guitars 1 and 2 (w/ dist)

D|-------|-------|-------|-------------------------|
A|-------|-------|-------|-------------------------|
F|-------|-------|-------|-------------------------|
C|-0-----|-------|-------|-8---7---0---3---5---6---|
G|-0-----|-------|-------|-6---5---0---3---5---6---|
C|-0-----|-------|-------|---------0---3---5---6---|
                                   *   *   *   *
D|-------|-------|-------|--------------------------|
A|-------|-------|-------|--------------------------|
F|-------|-------|-------|--------------------------|
C|-0-----|-------|-------|-7s8---7---0---3---1---2--|
G|-0-----|-------|-------|-5s6---5---0---3---1---2--|
C|-0-----|-------|-------|-----------0---3---1---2--|
                 .....................
D|------0----|--------------0-----------|-------------|------------------------|
A|------10---|-------9---------9--------|-------------|------------------------|
F|------10---|---10-----10--------10----|-------------|------------------------|
C|-0----0----|--------------------------|-------------|-----5-----5s8-s7-------|
G|-0---------|------------------------0-|-4h6--5--3---|--0--3--0--3s6-s5-------|
C|-0---------|------------------------0-|-4h6--5--3---|--0-----0---------------|
                                      *                  *     *
                 .....................
D|------0----|--------------0-----------|-------------|------------------------|
A|------10---|-------9---------9--------|-------------|------------------------|
F|------10---|---10-----10--------10----|-------------|------------------------|
C|-0----0----|--------------------------|-------------|------------------------|
G|-0---------|------------------------0-|-4h6--5--3---|--0--1--3--3s4-s3--1--3-|
C|-0---------|------------------------0-|-4h6--5--3---|--0--1--3--3s4-s3--1--3-|
                                      *                  *  *  *
   ...........                          ..........................
D|-------------|----------------------|-------------|-------------|
A|-------------|----------------------|-------------|-------------|
F|-------------|----------------------|-------------|-------------|
C|-------0-----|------5-----5s8-s7----|-------0-----|-------0-----|
G|----3--------|---0--3--0--3s6-s5----|----0--------|----4--------|
C|-3-----------|---0-----0------------|-0-----------|-4-----------|
   ...........     *     *              .......................................
D|-------------|----------------------|-------------|--------------------------|
A|-------------|----------------------|-------------|--------------------------|
F|-------------|----------------------|-------------|--------------------------|
C|-------0-----|------5-----5s8-s7----|-------0-----|-------0--------0---------|
G|----3--------|---0--3--0--3s6-s5----|----0--------|----4--------3---------1--|
C|-3-----------|---0-----0------------|-0-----------|-4--------3---------1-----|
                   *     *
                 .....................
D|------0----|--------------0-----------|-------------|------------------------|
A|------10---|-------9---------9--------|-------------|------------------------|
F|------10---|---10-----10--------10----|-------------|------------------------|
C|-0----0----|--------------------------|-------------|-----5-----5s8-s7-------|
G|-0---------|------------------------0-|-4h6--5--3---|--0--3--0--3s6-s5-------|
C|-0---------|------------------------0-|-4h6--5--3---|--0-----0---------------|
                                      *                  *     *
D|-------------|------------------------|
A|-------------|------------------------|
F|-------------|------------------------|
C|-------------|------------------------|
G|-4h6--5--3---|--0--1--3--3s4-s3--1--3-|
C|-4h6--5--3---|--0--1--3--3s4-s3--1--3-|
                  *  *  *

Добавлено: 24.08.2015
Другие материалы по этой песне:

Страница создана 24.08.2015
http://primanota.ru/feared/my-grief-my-sorrow-chords.htm
Привет, Гость.
Предлагаем пройти революционный курс по гитаре.
Подарок от PrimaNota.Ru, забирай!