PrimaNota.ru - самый крупный в мире бесплатный архив песенных текстов, аккордов, табулатур и нот


Feared - Godlike - таба, видео

Регистрация Запомнить меня
Войти через:  Facebook Google Twitter Vk Yandex Mail.ru

Feared - Godlike - таба, видео

Печатать
Просмотров: 382
Уроки эстрадного вокала в Санкт-Петербурге
i was asked on my youtube page to make a tab for this song that i covered, so this is
exactly what i played in my cover. Some of is is not right but its as close as i could get
to the right thing.  My youtube channel name is teamkillaman if you would like to 
checkout my cover. thanks.





Riff 1
|---------------------------------------------------------------------------------------|
|---------------------------------------------------------------------------------------|
|---------------------------------------------------------------------------------------|
|---------------------------------------------------------------------------------------|
|---------------------------------------------2-----------------------------------------|
|--2-2-2-0-2----0-2-3-----2-2-2-0-2-----0-2-3---3-----2-2-2-0-2-0-3-----2-2-2-0-3-6-5-3-|

Riff 2
|------------------------------------------------------------------------------|
|-------------0---------------------------------0------------------------------|
|-------------3---------------------------------3------------------------------|
|------------------------------------------------------------------------------|
|------------------------------------------------------------------------------|
|--2-2-0-3-2--------2-2-0-3-6-5-3-----2-2-0-3-2-------2-2-2-3-1--1-1-1-1-1-1-1-|

Riff 3 (A)
|----------------------------------------------------------------------------------|
|----------------------------------------------------------------------------------|
|---------------------------------------------------6------------------------------|
|--5-----7-----8------------------------------5-----4-----7------------------------|
|--3-----5-----6------------------------------3-----------5------------------------|
|----0-0---0-0-----0-0-0---0-0-0---6-5-3-5------0-0---0-0-----0-0/12---5\----12/---|

|--------------------------------------------------------------------------------------|
|--------------------------------------------------------------------------------------|
|----------------------------------------------------------------------5-5-4-4---------|
|--5-----7-----8---------------------------3----6----0-------------3-3---------5-5-3-3-|
|--3-----5-----6---------------------------3----6----0-----3-3-5-5---------------------|
|----0-0---0-0-----0-0-0---0-0-0-6-5-3-6---3----6----0---------------------------------|

Riff 3 (b)
|----------------------------------------------------------------------------------|
|----------------------------------------------------------------------------------|
|---------------------------------------------------6------------------------------|
|--5-----7-----8------------------------------5-----4-----7------------------------|
|--3-----5-----6------------------------------3-----------5------------------------|
|----0-0---0-0-----0-0-0---0-0-0---6-5-3-5------0-0---0-0-----0-0/12---5\----12/---|

|--------------------------------------------------------------------|
|--------------------------------------------------------------------|
|--------------------------------------------------------------------|
|--5-----7-----8---------------------------3----6----0-----5----5-5~-|
|--3-----5-----6---------------------------3----6----0-----3----3-3--|
|----0-0---0-0-----0-0-0---0-0-0-6-5-3-6---3----6----0--------0------|

Riff 4
|------------------------------------------------------------------------------|
|------------------------------------------------------------------------------|
|------------------------------------------------------------------------------|
|---------------------------------------7-7-5-7-8-4---4-8-----7-7-5-7-8--3-3-2-|
|---------------------------------------7-7-5-7-8-4---4-8-----7-7-5-7-8--3-3-2-|
|--0-0---0-0---0-0--0--0-0--0--0-0------7-7-5-7-8-4---4-8-----7-7-5-7-8--3-3-2-|

|---------------------------------------------|
|---------------------------------------------|
|---------------------------------------------|
|------7-7-5-7-8----4-4-8---7-7-5-7-8---1-1-1-|
|------7-7-5-7-8----4-4-8---7-7-5-7-8---1-1-1-|
|------7-7-5-7-8----4-4-8---7-7-5-7-8---1-1-1-|

Riff 5 (clean)
|----------------------------------------------------------------------------------------|
|------------------------------------1---1-----------------------1---1---1---1---1---1---|
|--------------------------------------4---------------------------4-------4-------4-----|
|------------------------------------------3---------------------------3-------3-------0-|
|----0---0---0---0---0---0---0---0-----------0---0---0---0---0---------------------------|
|--0---0---0---0---0---0---0---0---0-----------0---0---0---0---0-------------------------|

|------------------------------------------------|
|--1---1---1---1---------------------------1---1-|
|----4-------4-------------------------------4---|
|--------0-------0-------------------------------|
|------------------0---0---0---0---0---0---------|
|--------------------0---0---0---0---0---0-------|

Riff 6 (back to distortion)
|------------------------------------------------------------------|
|--1---1---1---1---1---1-------------------------------1-------1---|
|----4-------4-------4-----------------------------------4---4---4-|
|--------3-------3-------0-----3-3-------3-3-------3-------3-------|
|----------------------------------0---------0-------0-------------|
|--------------------------0-0-------0-0-------0-0-----------------|

|--------------------------------------------------|
|--1---1---1---1---1---1---1---1---0---1---1---1---|
|----4-------4-------4-------4-------4-------4-----|
|--------3-------3-------0-------0-------3-------3-|
|--------------------------------------------------|
|--------------------------------------------------|

solo 1
|--------------------4b5----------------------------------------------------------|
|--5~--3-5-3-5-5~--3------5b6--3-3h5--5-3-3h5--3--------3-------------------------|
|------------------------------------------------5-5b6----5-4-2-4-2-1-2-1---1-----|
|-------------------------------------------------------------------------3---3-2-|
|---------------------------------------------------------------------------------|
|---------------------------------------------------------------------------------|

|-------------------------------------------------17-16-17p16-----16----------|
|--5/9--10-9-10-12-10-12-13-12-13-15-17b18--15-17--------------17----17-15-17-|
|-----------------------------------------------------------------------------|
|-----------------------------------------------------------------------------|
|-----------------------------------------------------------------------------|
|-----------------------------------------------------------------------------|

|--------------------17-17-17-16-16-16-------------------17-17-17-16-16-16-17-17-17-20-20-20--|
|--15-15-15-17-17-17-------------------15-15-15-17-17-17--------------------------------------|
|---------------------------------------------------------------------------------------------|
|---------------------------------------------------------------------------------------------|
|---------------------------------------------------------------------------------------------|
|---------------------------------------------------------------------------------------------|

|--19-18-15-19-18-15-19-18-15-19-18-15-18-17-15-18-17-15-18-17-15-18-17-15-20b22--17-19b21--|
|-------------------------------------------------------------------------------------------|
|-------------------------------------------------------------------------------------------|
|-------------------------------------------------------------------------------------------|
|-------------------------------------------------------------------------------------------|
|-------------------------------------------------------------------------------------------|

Riff 7
|--------------------------------------------------------|
|--------------------------------------------------------|
|--------------------------------------------------------|
|-----------------------0-5-0----------------------0-5-0-|
|-----------------------0-3-0----------------------0-3-0-|
|--0-0----0-0-----0-0------------0-0----0-0----0-0-------|

solo 2
|------------------------------------------------------------------------------------------|
|------------------------------------------------------------------------------------------|
|-----------------------------------------------------------12-------------------12-15-14--|
|--5-4-----5-4-7-5-8-7-8-7-5-4~------7-5-7-8-12---10-12b13-----12~--5-7-8-7-8-12-----------|
|------3-5-----------------------5~--------------------------------------------------------|
|------------------------------------------------------------------------------------------|

|-----------------------------------------------|
|-----------------14----17----19--------13------|
|--15-14-12-11-------12----15----17--------11\0-|
|--------------13-------------------------------|
|-----------------------------------------------|
|-----------------------------------------------|
Добавлено: 23.02.2012
Другие материалы по этой песне:
  • Аккорды и текст

Страница создана 23.02.2012
http://primanota.ru/feared/godlike-chords.htm
Привет, Гость.
Предлагаем пройти революционный курс по гитаре.
Подарок от PrimaNota.Ru, забирай!