PrimaNota.ru - самый крупный в мире бесплатный архив песенных текстов, аккордов, табулатур и нот


Feared - By Silent Screaming - таба, видео

Регистрация Запомнить меня
Войти через:  Facebook Google Twitter Vk Yandex Mail.ru

Feared - By Silent Screaming - таба, видео

Печатать
Просмотров: 142
----------------------------------------------------------------------------------------------------------
|                                      FEARED - BY SILENT SCREAMING                                      |
|                                          Album: Synder (2015)                                          |
----------------------------------------------------------------------------------------------------------

                                     All credits goes to Peter Boyle
                                  pdf version: http://we.tl/JKbwNIkjwc
                         playthrough: https://www.youtube.com/watch?v=GRPE-9P6Anw

                                        Tuning: 6 string BF#BEG#C# 
                                                    
*********************************************GUITAR NOTATIONS*********************************************
*                                                                                                        *
*                                      | *   palm mute           |                                       *
*                                      | s   slide               |                                       *
*                                      | s\  slide downwards     |                                       *
*                                      | s/  slide upwards       |                                       *
*                                      | /s  slide in from below |                                       *
*                                      | h   hammer-on           |                                       *
*                                      | p   pull-off            |                                       *
*                                      | ~   vibrato             |                                       *
*                                      | +   pinch harmonics     |                                       *
*                                      | x   Mute note           |                                       *
*                                      | b   bend                |                                       *
*                                      | r   release             |                                       *
*                                      | pb  pre-bend            |                                       *
*                                      | ..  let ring            |                                       *
*                                                                                                        *
**********************************************************************************************************

----------------------------------------------------------------------------------------------------------
|                                          INTRO (00:00-00:28)                                           |
----------------------------------------------------------------------------------------------------------

Guitars 1 and 2 (w/ dist)

    ........................................................................
C#|------------------------------------|------------------------------------|
G#|------------------------------------|------------------------------------|
 E|----------0-------------------------|----------0-------------------------|
 B|----0-----------0-----0-----0-----0-|----0-----------0-----0-----0-----0-|
F#|-5-----5-----5-----5-----5-----5----|-4-----4-----4-----4-----4-----4----|
 B|------------------------------------|------------------------------------|

   ...................................                              slide up and down
C#|------------------------------------|------------------------------------|
G#|------------------------------------|------------------------------------|
 E|----------0-------------------------|------------------------------------|
 B|----0-----------0-----0-----0-----0-|----------------------------1s12s1--|
F#|-1-----1-----1-----1-----1-----1----|-0--0--0--0--0--0--0--0--0--1s12s1--|
 B|------------------------------------|-4--4--4--4--4--4--4--4--4--1s12s1--|

C#|-------------------------------|------------------------------------|
G#|-------------------------------|------------------------------------|
 E|-------------------------------|------------------------------------|
 B|-0-----------------------------|-------5-----------------3----------|
F#|-0-----------------------------|-5-h6-----6--5--3--5-h6-----6--5--3-|
 B|-0---0--0--0--0--0--0--0--0--0-|------------------------------------|
        *  *  *  *  *  *  *  *  *            *  *  *           *  *  * 
C#|-------------------------------|------------------------------------|
G#|-------------------------------|------------------------------------|
 E|-------------------------------|------------------------------------|
 B|-------------------------------|-------6----------------------------|
F#|-5~~~--------------------------|-4-h5-----5--4--0--4-h5-p4--1-h4-p1-|
 B|-----0--0--0--0--0--0--0--0--0-|------------------------------------|
    +   *  *  *  *  *  *  *  *  *            *  *  *
C#|-------------------------------|------------------------------------|
G#|-------------------------------|------------------------------------|
 E|-------------------------------|------------------------------------|
 B|-0-----------------------------|-------5-----------------3----------|
F#|-0-----------------------------|-5-h6-----6--5--3--5-h6-----6--5--3-|
 B|-0---0--0--0--0--0--0--0--0--0-|------------------------------------|
        *  *  *  *  *  *  *  *  *            *  *  *           *  *  *
                                    .......
C#|-------------------------------|-----------------------------|
G#|-------------------------------|-----------------------------|
 E|-------------------------------|-----------------------------|
 B|-------------------------------|-------0---------------------|
F#|-5~~~--------------------------|----0---------------0-h1-p0--|
 B|-----0--0--0--0--0--0--0--0--0-|-4--------1~~~~0-------------|
    +   *  *  *  *  *  *  *  *  *      

----------------------------------------------------------------------------------------------------------
|                                          VERSE (00:28-00:51)                                           |
----------------------------------------------------------------------------------------------------------

Guitars 1 and 2 (w/ dist)

C#|----------------------------------|------------------------------------|
G#|----------------------------------|------------------------------------|
 E|----------------------------------|------------------------------------|
 B|----------------------------------|------------------------------------|
F#|-/s5---5--5--5--5--5---5--5--5--5-|-5--5--5--5--5--5--5--5--5--5--5--5-|
 B|-/s8---8--8--8--8--8---8--8--8--8-|-3--3--3--3--3--3--4--4--4--4--4--4-|

C#|------------------------------------|------------------------------------|
G#|------------------------------------|------------------------------------|
 E|-------------------7--7--7--7--7--7-|-------------------8--5--5--5--5--5-|
 B|-------------------x--x--x--x--x--x-|-------------------x--x--x--x--x--x-|
F#|-0--0--0--0--0--0--5--5--5--5--5--5-|-0--0--0--0--0--0--6--3--3--3--3--3-|
 B|-0--0--0--0--0--0-------------------|-0--0--0--0--0--0-------------------|
    *  *  *  *  *  *                     *  *  *  *  *  *
C#|----------------------------------|------------------------------------|
G#|----------------------------------|------------------------------------|
 E|----------------------------------|------------------------------------|
 B|----------------------------------|------------------------------------|
F#|-/s5---5--5--5--5--5---5--5--5--5-|-5--5--5--5--5--5--5--5--5--5--5--5-|
 B|-/s8---8--8--8--8--8---8--8--8--8-|-3--3--3--3--3--3--4--4--4--4--4--4-|

C#|----------------------------------|------------------------|
G#|----------------------------------|------------------------|
 E|----------------------------------|------------------------|
 B|-0---0--0--0--0--0--0--0--0--0--0-|-0--0--0--0--0--0--0----|
F#|-0---0--0--0--0--0--0--0--0--0--0-|-0--0--0--0--0--0--0----|
 B|-0---0--0--0--0--0--0--0--0--0--0-|-2--2--2--2--2--2-------|

C#|----------------------------------|------------------------------------|
G#|----------------------------------|------------------------------------|
 E|----------------------------------|------------------------------------|
 B|----------------------------------|------------------------------------|
F#|-/s5---5--5--5--5--5---5--5--5--5-|-5--5--5--5--5--5--5--5--5--5--5--5-|
 B|-/s8---8--8--8--8--8---8--8--8--8-|-3--3--3--3--3--3--4--4--4--4--4--4-|

C#|------------------------------------|------------------------------------|
G#|------------------------------------|------------------------------------|
 E|-------------------7--7--7--7--7--7-|-------------------8--5--5--5--5--5-|
 B|-------------------x--x--x--x--x--x-|-------------------x--x--x--x--x--x-|
F#|-0--0--0--0--0--0--5--5--5--5--5--5-|-0--0--0--0--0--0--6--3--3--3--3--3-|
 B|-0--0--0--0--0--0-------------------|-0--0--0--0--0--0-------------------|
    *  *  *  *  *  *                     *  *  *  *  *  *
C#|----------------------------------|------------------------------------|
G#|----------------------------------|------------------------------------|
 E|----------------------------------|------------------------------------|
 B|----------------------------------|------------------------------------|
F#|-/s5---5--5--5--5--5---5--5--5--5-|-5--5--5--5--5--5--5--5--5--5--5--5-|
 B|-/s8---8--8--8--8--8---8--8--8--8-|-3--3--3--3--3--3--4--4--4--4--4--4-|

C#|------------------------|----------------------|
G#|------------------------|----------------------|
 E|------------------------|----------------------|
 B|-0---0---0---0---0---0--|-0---0---0---1s12s1---|
F#|-0---0---0---0---0---0--|-0---0---0---1s12s1---|
 B|-0---0---0---0---0---0--|-2---2---2---1s12s1---|
                                     
----------------------------------------------------------------------------------------------------------
|                                        PRE-CHORUS (00:51-01:13)                                        |
----------------------------------------------------------------------------------------------------------

Guitars 1 and 2 (w/ dist)

     ...................................................................................................
C#|-------------------------|------------------------|------------------------|-------------------------|
G#|-------------------------|------------------------|------------------------|-------------------------|
 E|--------------0----------|-------------0----------|-------------0----------|--------------0----------|
 B|------4---------------4--|-----4---------------4--|-----3---------------3--|------6---------------6--|
F#|/s5-------5-------5------|-3-------3-------3------|-1-------1-------1------|/s5-------5-------5------|
 B|-------------------------|------------------------|------------------------|-------------------------|
     ...................................................................................................
C#|-------------------------|------------------------|------------------------|-------------------------|
G#|-------------------------|------------------------|------------------------|-------------------------|
 E|--------------0----------|-------------0----------|-------------0----------|--------------0----------|
 B|------4---------------4--|-----4---------------4--|-----3---------------3--|------6---------------6--|
F#|/s5-------5-------5------|-3-------3-------3------|-1-------1-------1------|/s5-------5-------5------|
 B|-------------------------|------------------------|------------------------|-------------------------|
   ...................................................................................................
C#|------------------------|------------------------|------------------------|------------------------|
G#|------------------------|------------------------|------------------------|------------------------|
 E|------------------------|------------------------|------------------------|------------------------|
 B|-------------0----------|-------------0----------|-------------0----------|------------------------|
F#|-----6---------------6--|-----6---------------6--|-----6---------------6--|-----6-----------6------|
 B|-6-------6-------6------|-6-------6-------6------|-3-------3-------3------|-3-------3---5-------5--|
   ...................................................................................................
C#|------------------------|------------------------|------------------------|------------------------|
G#|------------------------|------------------------|------------------------|------------------------|
 E|------------------------|------------------------|------------------------|------------------------|
 B|-------------0----------|-------------0----------|-------------0----------|------------------------|
F#|-----6---------------6--|-----6---------------6--|-----6---------------6--|-----6-----------6------|
 B|-6-------6-------6------|-6-------6-------6------|-3-------3-------3------|-3-------3---5-------5--|

----------------------------------------------------------------------------------------------------------
|                                          CHORUS (01:13-01:36)                                          |
----------------------------------------------------------------------------------------------------------

Guitar 1 (w/ dist)
    ..................................................................................................
C#|------------------------|------------------------|------------------------|------------------------|
G#|------------------------|------------------------|------------------------|------------------------|
 E|------------------------|------------------------|------------------------|------------------------|
 B|-----0-------0-------0--|------------------------|------------------------|-------------0----------|
F#|------------------------|-----3-------3-------3--|-----5-------5-------5--|-----6---------------6--|
 B|-0-------0-------0------|-1-------1-------1------|-3-------3-------3------|-4-------4-------4------|
   ...................................................................................................
C#|------------------------|------------------------|------------------------|------------------------|
G#|------------------------|------------------------|------------------------|------------------------|
 E|------------------------|------------------------|------------------------|------------------------|
 B|-----0-------0-------0--|------------------------|------------------------|------------------------|
F#|------------------------|-----3-------3-------3--|-----5-------5-------5--|-----5-------5-------5--|
 B|-0-------0-------0------|-1-------1-------1------|-2-------2-------2------|-3-------3-------3------|
   ...................................................................................................
C#|------------------------|------------------------|------------------------|------------------------|
G#|------------------------|------------------------|------------------------|------------------------|
 E|------------------------|------------------------|------------------------|------------------------|
 B|-----0-------0-------0--|------------------------|------------------------|-------------0----------|
F#|------------------------|-----3-------3-------3--|-----5-------5-------5--|-----6---------------6--|
 B|-0-------0-------0------|-1-------1-------1------|-3-------3-------3------|-4-------4-------4------|
   ...................................................................................................
C#|------------------------|------------------------|------------------------|---------------------------|
G#|------------------------|------------------------|------------------------|---------------------------|
 E|------------------------|------------------------|------------------------|---------------------------|
 B|-----0-------0-------0--|------------------------|-------------0----------|--------------0------------|
F#|------------------------|-----3-------3-------3--|-----9---------------9--|-----10---------------10---|
 B|-0-------0-------0------|-1-------1-------1------|-7-------7-------7------|-8--------8-------8--------|

Guitar 2 (w/ dist)
    ................................................
C#|------------------------|------------------------|
G#|------------------------|------------------------|
 E|------------------------|------------------------| x8
 B|-----0-------0-------0--|-----0-------0-------0--|
F#|-5-------5-------5------|-6-------6-------6------|
 B|------------------------|------------------------|

Guitar 3 (w/ dist and E-bow)

C#|-------|-------|-------|-------|-------|-------------|-------|-------|-------|-------|-------|
G#|-------|-------|-------|-------|-------|-------------|-------|-------|-------|-------|-------|
 E|-7-----|-------|-------|-------|-------|-b-----r-----|-------|-------|-------|-------|-------|
 B|-------|-------|-------|-------|-------|-------------|-------|-------|-------|-------|-------|
F#|-------|-------|-------|-------|-------|-------------|-------|-------|-------|-------|-------|
 B|-------|-------|-------|-------|-------|-------------|-------|-------|-------|-------|-------|

----------------------------------------------------------------------------------------------------------
|                                         VERSE 2 (01:36-02:16)                                          |
----------------------------------------------------------------------------------------------------------
                                           play INTRO + VERSE
----------------------------------------------------------------------------------------------------------
|                                       PRE-CHORUS 2 (02:16-02:39)                                       |
----------------------------------------------------------------------------------------------------------
                                            same as PRE-CHORUS
----------------------------------------------------------------------------------------------------------
|                                         CHORUS 2 (02:39-03:02)                                         |
----------------------------------------------------------------------------------------------------------
                                              same as CHORUS
----------------------------------------------------------------------------------------------------------
|                                          BRIDGE (03:02-03:48)                                          |
----------------------------------------------------------------------------------------------------------

Guitars 1 and 2 (w/ dist)
    ........                            ........
C#|------------------|----------------|------------------|----------------|
G#|------------------|----------------|------------------|----------------|
 E|------------------|----------------|------------------|----------------| x3
 B|--------0---------|--------4b--r---|--------0---------|----------------|
F#|-----0------0-----|-----0----------|-----0------0-----|----------------|
 B|-0-------------1~~|~~~~~0----------|-0-------------1~~|~~~/s8----7~~~~~|
                           *
    ........                                                                 slide up and down
C#|------------------|----------------|------------------------|---------------------|
G#|------------------|----------------|------------------------|---------------------|
 E|------------------|----------------|------------------------|---------------------|
 B|--------0---------|--------4b--r---|-0--0--0--0--0--0--0--0-|-0--0--0--0--1s12s1--|
F#|-----0------0-----|-----0----------|-0--0--0--0--0--0--0--0-|-0--0--0--0--1s12s1--|
 B|-0-------------1~~|~~~~~0----------|-0--0--0--0--0--0--0--0-|-4--4--4--4--1s12s1--|
                                        *  *  *  *  *  *  *  *   *  *  *  *  

C#|--------------------------------------|-----------------|------------------------|
G#|-----------------|--------------------|-----------------|------------------------|
 E|-----------------|--------------------|-----------------|------------------------|
 B|-8----8--8--8--8-|--8--8---8--8--8--8-|-8----8--8--8--8-|-8--8--8---8--8--8--8---|
F#|-5----5--5--5--5-|--5--5---5--5--5--5-|-4----4--4--4--4-|-4--4--4---4--4--4--4---|\
 B|-5----5--5--5--5-|--5--5---5--5--5--5-|-4----4--4--4--4-|-4--4--4---4--4--4--4---| \
                                                                                       x2
C#|-----------------|----------------------|-----------------|----------------------| /
G#|-----------------|----------------------|-----------------|----------------------|/
 E|-----------------|----------------------|-----------------|----------------------|
 B|-5----5--5--5--5-|-5--5--5---5--5--5--5-|-4----4--4--4--4-|-4--4--4---4--4--4--4-|
F#|-1----1--1--1--1-|-1--1--1---1--1--1--1-|-1----1--1--1--1-|-1--1--1---1--1--1--1-|
 B|-1----1--1--1--1-|-1--1--1---1--1--1--1-|-1----1--1--1--1-|-1--1--1---1--1--1--1-|

Guitar 3 (w/ dist and E-bow)

16 bars empty, then:

C#|-------|-------|-------|-------|-----------|-------|-------|-------|
G#|-10~~~~|~11~~~~|~13~~~~|~14~~~~|~6~~~~8~~~~|~8~~~~~|~7~~~~~|~~~~~~~|
 E|-------|-------|-------|-------|-----------|-------|-------|-------|
 B|-------|-------|-------|-------|-----------|-------|-------|-------|
F#|-------|-------|-------|-------|-----------|-------|-------|-------|
 B|-------|-------|-------|-------|-----------|-------|-------|-------|

C#|-------|-------|-------|-------|-----------|-----------|-------|-------|
G#|~10~~~~|~11~~~~|~13~~~~|~14~~~~|~6~~~~8~~~~|~8~~~~11~~~|~7~~~~~|~~~~~~~|
 E|-------|-------|-------|-------|-----------|-----------|-------|-------|
 B|-------|-------|-------|-------|-----------|-----------|-------|-------|
F#|-------|-------|-------|-------|-----------|-----------|-------|-------|
 B|-------|-------|-------|-------|-----------|-----------|-------|-------|

Guitar 4 (acoustic)

C#|--------------------------|-------------------------|
G#|--------------------------|-------------------------|
 E|--------------------------|-------------------------|
 B|--------------------------|-------------------------|
F#|-0--0--0--0--0--0--0--0-0-|-0--0--0--0--0--0--0--0--|\
 B|-0--0--0--0--0--0--1--1-1-|-1--1--0--0--0--0--0--0--| \ 
    *  *  *  *  *  *  *  * *   *  *  *  *  *  *  *  *     x2
C#|--------------------------|-------------------------| /
G#|--------------------------|-------------------------|/
 E|--------------------------|-------------------------|
 B|--------------------------|-------------------------|
F#|-0--0--0--0--0--0--0--0-0-|-0--0--0--0--0--0--0--0--|
 B|-0--0--0--0--0--0--1--1-1-|-1--1--0--0--0--0--0--0--|
    *  *  *  *  *  *  *  * *   *  *  *  *  *  *  *  *
C#|--------------------------|-------------------------|
G#|--------------------------|-------------------------|
 E|--------------------------|-------------------------|
 B|--------------------------|-------------------------|
F#|-0--0--0--0--0--0--0--0-0-|-0--0--0--0--0--0--0--0--|
 B|-0--0--0--0--0--0--1--1-1-|-1--1--0--0--0--0--0--0--|  
    *  *  *  *  *  *  *  * *   *  *  *  *  *  *  *  *  
C#|------------------------|-------------------------|
G#|------------------------|-------------------------|
 E|------------------------|-------------------------|
 B|-0--0--0--0--0--0--0--0-|-0--0--0--0--0--0--0--0--|
F#|-0--0--0--0--0--0--0--0-|-0--0--0--0--0--0--0--0--|
 B|-0--0--0--0--0--0--0--0-|-4--4--4--4--4--4--4--4--|
    *  *  *  *  *  *  *  *   *  *  *  *  *  *  *  *

----------------------------------------------------------------------------------------------------------
|                                           SOLO (03:48-04:11)                                           |
----------------------------------------------------------------------------------------------------------

Guitars 1 and 2 (w/ dist)

C#|--------------------------------------|-----------------|------------------------|
G#|-----------------|--------------------|-----------------|------------------------|
 E|-----------------|--------------------|-----------------|------------------------|
 B|-8----8--8--8--8-|--8--8---8--8--8--8-|-8----8--8--8--8-|-8--8--8---8--8--8--8---|
F#|-5----5--5--5--5-|--5--5---5--5--5--5-|-4----4--4--4--4-|-4--4--4---4--4--4--4---|\
 B|-5----5--5--5--5-|--5--5---5--5--5--5-|-4----4--4--4--4-|-4--4--4---4--4--4--4---| \
                                                                                       x2
C#|-----------------|----------------------|-----------------|----------------------| /
G#|-----------------|----------------------|-----------------|----------------------|/
 E|-----------------|----------------------|-----------------|----------------------|
 B|-5----5--5--5--5-|-5--5--5---5--5--5--5-|-4----4--4--4--4-|-4--4--4---4--4--4--4-|
F#|-1----1--1--1--1-|-1--1--1---1--1--1--1-|-1----1--1--1--1-|-1--1--1---1--1--1--1-|
 B|-1----1--1--1--1-|-1--1--1---1--1--1--1-|-1----1--1--1--1-|-1--1--1---1--1--1--1-|

Guitar 3 (w/ dist and E-bow)

C#|-------|-------|-------|-------|-----------|-------|-------|-------|
G#|-10~~~~|~11~~~~|~13~~~~|~14~~~~|~6~~~~8~~~~|~8~~~~~|~7~~~~~|~~~~~~~|
 E|-------|-------|-------|-------|-----------|-------|-------|-------|
 B|-------|-------|-------|-------|-----------|-------|-------|-------|
F#|-------|-------|-------|-------|-----------|-------|-------|-------|
 B|-------|-------|-------|-------|-----------|-------|-------|-------|

C#|-------|-------|-------|-------|-----------|-----------|-------|-------|
G#|~10~~~~|~11~~~~|~13~~~~|~14~~~~|~6~~~~8~~~~|~8~~~~11~~~|~7~~~~~|~~~~~~~|
 E|-------|-------|-------|-------|-----------|-----------|-------|-------|
 B|-------|-------|-------|-------|-----------|-----------|-------|-------|
F#|-------|-------|-------|-------|-----------|-----------|-------|-------|
 B|-------|-------|-------|-------|-----------|-----------|-------|-------|

Guitar 4 (w/ dist and delay)

C#|------------|----------------|------------|----------------|----------------|-------|
G#|------------|----------------|------------|----------------|----------------|-------|
 E|/s7----5--3-|-----2---3---5--|-6-----5--3-|-----3---5---6--|----------------|-------|
 B|------------|----------------|------------|----------------|-/s7~~~~~5--/s8~|~~~~~~~|
F#|------------|----------------|------------|----------------|----------------|-------|
 B|------------|----------------|------------|----------------|----------------|-------|

C#|----------------|-----------|--------------------------|-----------------|----------------------|
G#|----------------|-----------|-10-10-10-10-h11p10p8h10b~|~~~--------------|----------------------|
 E|-/s5~~~~~3--/s7~|~~~~~~8~~~~|--------------------------|---/s7---8---10--|s11-------------------|
 B|----------------|-----------|--------------------------|-----------------|-----11--10-h11p10p8~~|
F#|----------------|-----------|--------------------------|-----------------|----------------------|
 B|----------------|-----------|--------------------------|-----------------|----------------------|

C#|----------------|----------------|----------------------------------------|
G#|-----11-s13-s14-|----------------|----------------------6--10-------------|
 E|-----x---x---x--|----------------|----7--8--------7--8---------8--10--12--|
 B|~~~~~8--s10-s11-|/s5s\---------7-|-8--------7--8--------------------------|
F#|----------------|-------6--10----|----------------------------------------|
 B|----------------|----------------|----------------------------------------|
                           *  *   *   *  *  *  *  *  *  *  *  *   *  *   *
C#|------------------------------|---------------------------13----------------------|--------|
G#|-10--11--13--13--14--16--14~~~|~13-14-13------13--14--16------16--14--13--14--16--|-15~~~~~|
 E|------------------------------|-----------15--------------------------------------|--------|
 B|------------------------------|---------------------------------------------------|--------|
F#|------------------------------|---------------------------------------------------|--------|
 B|------------------------------|---------------------------------------------------|--------|

----------------------------------------------------------------------------------------------------------
|                                          OUTRO (04:11-04:53)                                           |
----------------------------------------------------------------------------------------------------------

Guitars 1 and 2 (w/ dist)

    ........................................................................
C#|------------------------------------|------------------------------------|
G#|------------------------------------|------------------------------------|
 E|----------0-------------------------|----------0-------------------------|
 B|----0-----------0-----0-----0-----0-|----0-----------0-----0-----0-----0-|
F#|-5-----5-----5-----5-----5-----5----|-4-----4-----4-----4-----4-----4----|
 B|------------------------------------|------------------------------------|

   ...................................                              slide up
C#|------------------------------------|----------------------------------|
G#|------------------------------------|----------------------------------|
 E|----------0-------------------------|----------------------------------|
 B|----0-----------0-----0-----0-----0-|----------------------------1s12--|
F#|-1-----1-----1-----1-----1-----1----|-4--4--4--4--4--4--4--4--4--1s12--|
 B|------------------------------------|-5--5--5--5--5--5--5--5--5--1s12--|

C#|-------------------------------|------------------------------------| 
G#|-------------------------------|------------------------------------|
 E|-------------------------------|------------------------------------|
 B|-5-----------------------------|------------------------------------|
F#|-5-----------------------------|------------------------------------|
 B|-5---5--5--5--5--5--5--5--5--5-|-5--5--5--5--5--5--5--5--5--5--5--5-|
        *  *  *  *  *  *  *  *  *   *  *  *  *  *  *  *  *  *  *  *  * 
C#|------------------------|------------------------------------|
G#|------------------------|------------------------------------|
 E|------------------------|------------------------------------|
 B|-5---5---5---5---5---5--|-4--4--4--4--4--4--4--4--4--4--4--4-|
F#|-1---1---1---1---1---1--|-1--1--1--1--1--1--1--1--1--1--1--1-|
 B|-1---1---1---1---1---1--|-1--1--1--1--1--1--1--1--1--1--1--1-|
 
    ........................................................................ 
C#|------------------------------------|------------------------------------|
G#|------------------------------------|------------------------------------|
 E|----------0-------------------------|----------0-------------------------|
 B|----0-----------0-----0-----0-----0-|----0-----------0-----0-----0-----0-|
F#|-5-----5-----5-----5-----5-----5----|-4-----4-----4-----4-----4-----4----|
 B|------------------------------------|------------------------------------|
   ...................................        
C#|------------------------------------|-------------------------------------|
G#|------------------------------------|-------------------------------------|
 E|----------0-------------------------|-------------------------------------|
 B|----0-----------0-----0-----0-----0-|-------------------------------------|
F#|-1-----1-----1-----1-----1-----1----|-4--4--4--4--4--4--4--4--4--4--4--4--|
 B|------------------------------------|-5--5--5--5--5--5--5--5--5--5--5--5--|

C#|-------------------------------|------------------------------------| 
G#|-------------------------------|------------------------------------|
 E|-------------------------------|------------------------------------|
 B|-5-----------------------------|------------------------------------|
F#|-5-----------------------------|------------------------------------|
 B|-5---5--5--5--5--5--5--5--5--5-|-5--5--5--5--5--5--5--5--5--5--5--5-|
        *  *  *  *  *  *  *  *  *   *  *  *  *  *  *  *  *  *  *  *  *
C#|------------------------|------------------------------------|
G#|------------------------|------------------------------------|
 E|------------------------|------------------------------------|
 B|-5---5---5---5---5---5--|-4--4--4--4--4--4--4--4--4--4--4--4-|
F#|-1---1---1---1---1---1--|-1--1--1--1--1--1--1--1--1--1--1--1-|
 B|-1---1---1---1---1---1--|-1--1--1--1--1--1--1--1--1--1--1--1-|
                                                           
C#|--------|-------|-------|-------|-------|-------|-------|-------|
G#|--------|-------|-------|-------|-------|-------|-------|-------|
 E|--------|-------|-------|-------|-------|-------|-------|-------|
 B|-5------|-------|-------|-------|-------|-------|-------|-------|
F#|-2------|-------|-------|-------|-------|-------|-------|-------|
 B|-2------|-------|-------|-------|-------|-------|-------|-------|

Guitar 3 (w/ dist and E-bow)

C#|----------|----------|----------|---------------|-----------------|-------|----------|
G#|---17-----|---18-----|---20~~~~~|---20b~~~~~~~~~|~~~~--pb20b~~~~r~|-20~~~~|---20b~~~~|
 E|--x-------|--x-------|--x-------|--x------------|-----x-----------|-------|--x-------|
 B|-x--------|-x--------|-x--------|-x-------------|----x------------|-------|-x--------|
F#|----------|----------|----------|---------------|-----------------|-------|----------|
 B|----------|----------|----------|---------------|-----------------|-------|----------|

Guitar 4 (w/ dist)

C#|------------------------------------------------|------------------------------------------------|
G#|-15--15--15--15--15--15--15--15--15--15--15--15-|-17--17--17--17--17--17--17--17--17--17--17--17-|
 E|--x---x---x---x---x---x---x---x---x---x---x---x-|--x---x---x---x---x---x---x---x---x---x---x---x-|
 B|-12--12--12--12--12--12--12--12--12--12--12--12-|-14--14--14--14--14--14--14--14--14--14--14--14-|
F#|------------------------------------------------|------------------------------------------------|
 B|------------------------------------------------|------------------------------------------------|

C#|------------------------------------------------|------------------------------------------------|
G#|-18--18--18--18--18--18--18--18--18--18--18--18-|-17--17--17--17--17--17--17--17--17--17--17--17-|
 E|--x---x---x---x---x---x---x---x---x---x---x---x-|--x---x---x---x---x---x---x---x---x---x---x---x-|
 B|-15--15--15--15--15--15--15--15--15--15--15--15-|-14--14--14--14--14--14--14--14--14--14--14--14-|
F#|------------------------------------------------|------------------------------------------------|
 B|------------------------------------------------|------------------------------------------------|

C#|------------------------------------------------|------------------------------------------------|
G#|------------------------------------------------|------------------------------------------------|
 E|-12--12--12--12--12--12--12--12--12--12--12--12-|-14--14--14--14--14--14--14--14--14--14--14--14-|
 B|--x---x---x---x---x---x---x---x---x---x---x---x-|--x---x---x---x---x---x---x---x---x---x---x---x-|
F#|-10--10--10--10--10--10--10--10--10--10--10--10-|-12--12--12--12--12--12--12--12--12--12--12--12-|
 B|------------------------------------------------|------------------------------------------------|

C#|-----------------------------|------------------------------------------------|
G#|-----------------------------|------------------------------------------------|
 E|-15---15---15---15---15---15-|-15--15--15--15--15--15--15--15--15--15--15--15-|
 B|--x----x----x----x----x----x-|--x---x---x---x---x---x---x---x---x---x---x---x-|
F#|-13---13---13---13---13---13-|-13--13--13--13--13--13--13--13--13--13--13--13-|
 B|-----------------------------|------------------------------------------------|

C#|------------------------------------------------|------------------------------------------------|
G#|-15--15--15--15--15--15--15--15--15--15--15--15-|-17--17--17--17--17--17--17--17--17--17--17--17-|
 E|--x---x---x---x---x---x---x---x---x---x---x---x-|--x---x---x---x---x---x---x---x---x---x---x---x-|
 B|-12--12--12--12--12--12--12--12--12--12--12--12-|-14--14--14--14--14--14--14--14--14--14--14--14-|
F#|------------------------------------------------|------------------------------------------------|
 B|------------------------------------------------|------------------------------------------------|

C#|------------------------------------------------|------------------------------------------------|
G#|-18--18--18--18--18--18--18--18--18--18--18--18-|-17--17--17--17--17--17--17--17--17--17--17--17-|
 E|--x---x---x---x---x---x---x---x---x---x---x---x-|--x---x---x---x---x---x---x---x---x---x---x---x-|
 B|-15--15--15--15--15--15--15--15--15--15--15--15-|-14--14--14--14--14--14--14--14--14--14--14--14-|
F#|------------------------------------------------|------------------------------------------------|
 B|------------------------------------------------|------------------------------------------------|

C#|------------------------------------------------|------------------------------------------------|
G#|------------------------------------------------|------------------------------------------------|
 E|-14--14--14--14--14--14--14--14--14--14--14--14-|-14--14--14--14--14--14--14--14--14--14--14--14-|
 B|--x---x---x---x---x---x---x---x---x---x---x---x-|--x---x---x---x---x---x---x---x---x---x---x---x-|
F#|-12--12--12--12--12--12--12--12--12--12--12--12-|-12--12--12--12--12--12--12--12--12--12--12--12-|
 B|------------------------------------------------|------------------------------------------------|

C#|-----------------------------|------------------------------------------------|
G#|-----------------------------|------------------------------------------------|
 E|-15---15---15---15---15---15-|-17--17--17--17--17--17--17--17--17--17--17--17-|
 B|--x----x----x----x----x----x-|--x---x---x---x---x---x---x---x---x---x---x---x-|
F#|-13---13---13---13---13---13-|-15--15--15--15--15--15--15--15--15--15--15--15-|
 B|-----------------------------|------------------------------------------------|

C#|--------|--------|--------|--------|--------|--------|--------|--------|
G#|--------|--------|--------|--------|--------|--------|--------|--------|
 E|-16-----|--------|--------|--------|--------|--------|--------|--------|
 B|--x-----|--------|--------|--------|--------|--------|--------|--------|
F#|-14-----|--------|--------|--------|--------|--------|--------|--------|
 B|--------|--------|--------|--------|--------|--------|--------|--------|


Добавлено: 24.08.2015
Вам также может быть интересно:
Другие материалы по этой песне:

Страница создана 24.08.2015
http://primanota.ru/feared/by-silent-screaming-chords.htm
Привет, Гость.
Предлагаем пройти революционный курс по гитаре.
Подарок от PrimaNota.Ru, забирай!