PrimaNota.ru - самый крупный в мире бесплатный архив песенных текстов, аккордов, табулатур и нот


Fear - I Believe Ill Have Another Beer - таба, видео

Регистрация Запомнить меня
Войти через:  Facebook Google Twitter Vk Yandex Mail.ru

Fear - I Believe Ill Have Another Beer - таба, видео

Печатать
Просмотров: 97
FEAR
"I Believe I'll Have Another Beer"
From the album "Have Another Beer With FEAR" (1995)

Standard Tuning

Intro
e|-------------------3-------------------------------|
B|---3---3-----------3-------------------------------|
G|---2---2---2---4---0-------2---4---9-9-9-9-9-9-9-9-|
D|---0-------2---4---0-------2---4---9-9-9-9-9-9-9-9-|
A|-------4---0---2---2-------0---2---7-7-7-7-7-7-7-7-|
E|-------------------3-------------------------------|

Verse
e|--------------------------------|
B|--------------------------------|
G|--4--4-4-4-4-4-4-5-5-5-7--7-7-7-|
D|--4--4-4-4-4-4-4-5-5-5-5--5-5-5-|
A|--2--2-2-2-2-2-2-3-3-3----------|
E|--------------------------------|

Pre-Chorus
e|---------------------------------------------------------|
B|---------------------------------------------------------|
G|--7--7--6--6--2--2--4--4---------------------------------|
D|--7--7--7--7--2--2--4--4--4--4---------------------------|
A|--5--5--4--4--0--0--2--2--4--4---------------------------|
E|--------------------------2--2--3p2-2-3p2-2-3p2-2-3p2-2--|

Chorus
e|----------------------------------------------------------|
B|----------------------------------------------------------|
G|--7--7--6--6--2--2--4--4----------------------------------|
D|--7--7--7--7--2--2--4--4--5-5-5-5-5-5-5-5-5---------------|
A|--5--5--4--4--0--0--2--2--5-5-5-5-5-5-5-5-5-----0-2-0---0-|
E|--------------------------3-3-3-3-3-3-3-3-3-0-3-------3---|

e|----------------------------------------------------|
B|----------------------------------------------------|
G|----------------------------------9-9-9-9-9-9-9-9---|
D|--7-7-7-7-7-7-7-7-9-9-9-9-9-9-9-9-9-9-9-9-9-9-9-9---|
A|--7-7-7-7-7-7-7-7-9-9-9-9-9-9-9-9-7-7-7-7-7-7-7-7---|
E|--5-5-5-5-5-5-5-5-7-7-7-7-7-7-7-7-------------------|

Extended Second Chorus
e|--------------------------------------------------|
B|--------------------------------------------------|
G|----------------------------------9---8-----------|
D|--7-7-7-7-7-7-7-7-9-9-9-9-9-9-9-9-9---9---11--9---|
A|--7-7-7-7-7-7-7-7-9-9-9-9-9-9-9-9-7---6---11--9---|
E|--5-5-5-5-5-5-5-5-7-7-7-7-7-7-7-7---------9---7---|

e|-----------------------------------------------------------------|
B|-----------------------------------------------------------------|
G|-----------------------------------------------------------------|
D|-7-7-7-7-7-7-7-7-9-9-9-9-9-9-9-9-7-7-7-7-7-7-7-7-9-9-9-9-9-9-9-9-|
A|-7-7-7-7-7-7-7-7-9-9-9-9-9-9-9-9-7-7-7-7-7-7-7-7-9-9-9-9-9-9-9-9-|
E|-5-5-5-5-5-5-5-5-7-7-7-7-7-7-7-7-5-5-5-5-5-5-5-5-7-7-7-7-7-7-7-7-|

e|----------------------------------------------------|
B|----------------------------------------------------|
G|----------------------------------9-9-9-9-9-9-9-9---|
D|--7-7-7-7-7-7-7-7-9-9-9-9-9-9-9-9-9-9-9-9-9-9-9-9---|
A|--7-7-7-7-7-7-7-7-9-9-9-9-9-9-9-9-7-7-7-7-7-7-7-7---|
E|--5-5-5-5-5-5-5-5-7-7-7-7-7-7-7-7-------------------|

Bridge
e|----------------------------------|
B|----------------------------------|
G|----------------------------------|
D|--4--4-4--------------------------|
A|--4--4-4--------------------------|
E|--2--2-2-3p2-2-3p2-2-3p2-2-3p2-2--|

Final Chorus
e|--------------------------------------------------|
B|--------------------------------------------------|
G|----------------------------------9---8-----------|
D|--7-7-7-7-7-7-7-7-9-9-9-9-9-9-9-9-9---9---11--9---|
A|--7-7-7-7-7-7-7-7-9-9-9-9-9-9-9-9-7---6---11--9---|
E|--5-5-5-5-5-5-5-5-7-7-7-7-7-7-7-7---------9---7---|

e|-----------------------------------------------------------------|
B|-----------------------------------------------------------------|
G|-----------------------9-8-----------------------------9-8-------|
D|-7-7-7-7-7-7-7-7-9-9-9-------9---7-7-7-7-7-7-7-7-9-9-9-------9---|
A|-7-7-7-7-7-7-7-7-9-9-9-----------7-7-7-7-7-7-7-7-9-9-9-----------|
E|-5-5-5-5-5-5-5-5-7-7-7-----------5-5-5-5-5-5-5-5-7-7-7-----------|

e|----------------------------------------------------|
B|----------------------------------------------------|
G|----------------------------------9-9-9-9-9-9-9-9---|
D|--7-7-7-7-7-7-7-7-9-9-9-9-9-9-9-9-9-9-9-9-9-9-9-9---|
A|--7-7-7-7-7-7-7-7-9-9-9-9-9-9-9-9-7-7-7-7-7-7-7-7---|
E|--5-5-5-5-5-5-5-5-7-7-7-7-7-7-7-7-------------------|
Добавлено: 20.06.2016
Другие материалы по этой песне:
  • Аккорды и текст

Страница создана 20.06.2016
http://primanota.ru/fear/i-believe-ill-have-another-beer-chords.htm
Привет, Гость.
Предлагаем пройти революционный курс по гитаре.
Подарок от PrimaNota.Ru, забирай!