PrimaNota.ru - самый крупный в мире бесплатный архив песенных текстов, аккордов, табулатур и нот


Fear Factory - Moment Of Impact - текст песни, таба, видео

Регистрация Запомнить меня
Войти через:  Facebook Google Twitter Vk Yandex Mail.ru

Fear Factory - Moment Of Impact - текст песни, таба, видео

Печатать
Просмотров: 162
-------------------------------------------------------------------------------
                                          Moment Of Impact - Fear Factory
-------------------------------------------------------------------------------

Tab: Sick Steve

Tuning: Seven string B dropped to A



                          1,2,3                           4
e|-----------------|-----------------|---------------------------------------|
B|-----------------|-----------------|---------------------------------------|
G|-----------------|-----------------|---------------------------------------|
D|-----------------|-----------------|---------------------------------------| Play x1
A|-----------------|-----------------|---------------------------------------|
E|-----------------|-----------------|-9h12p9-8h11p8-7h10p7-6h9p6------------|
A|-777-000-000-000-|-000-000-777-555-|---------------------------------------|
   ... ... ... ...   ... ... ... ...



                                1,2,3                         4
e|--------------------|-----------------------|------------------------------|
B|--------------------|-----------------------|------------------------------|
G|--------------------|-----------------------|------------------------------|
D|--------------------|-----------------------|------------------------------| Play x 2
A|--------------------|-----------------------|------------------------------|
E|--------------------|-----------------------|-9h12p9-8h11p8-7h10p7-6h9p6---|
A|-777-000-101010-000-|-101010-000-121212-888-|------------------------------|
   ... ... . . .  ...   . . .  ... . . .  ...



                                             1                   2
e|-------------------------------------|-----------|-------------------------|
B|-------------------------------------|-----------|-------------------------|
G|-------------------------------------|-----------|-------------------------|
D|-------------------------------------|-----------|-------------------------| Play x1
A|---------4-----------4-----------7---|---------7-|---7---------------------|
E|---------2-----------x-----------5---|---------7-|---7---------------------|
A|-222222222---444444444---555555555---|-777777777-|-7-7---------------------|
   ........    ........    ........      ........    .



                          1,2,3                           4
e|-----------------|-----------------|---------------------------------------|
B|-----------------|-----------------|---------------------------------------|
G|-----------------|-----------------|---------------------------------------|
D|-----------------|-----------------|---------------------------------------| Play x1
A|-----------------|-----------------|---------------------------------------|
E|-----------------|-----------------|-9h12p9-8h11p8-7h10p7-6h9p6------------|
A|-777-000-000-000-|-000-000-777-555-|---------------------------------------|
   ... ... ... ...   ... ... ... ...


                                1,2,3                         4
e|--------------------|-----------------------|------------------------------|
B|--------------------|-----------------------|------------------------------|
G|--------------------|-----------------------|------------------------------|
D|--------------------|-----------------------|------------------------------| Play x2
A|--------------------|-----------------------|------------------------------|
E|--------------------|-----------------------|-9h12p9-8h11p8-7h10p7-6h9p6---|
A|-777-000-101010-000-|-101010-000-121212-888-|------------------------------|
   ... ... . . .  ...   . . .  ... . . .  ...



e|---------------------------------------------------------------------------|
B|---------------------------------------------------------------------------|
G|---------------------------------------------------------------------------|
D|---------------------------------------------------------------------------| Play x2
A|---------5-----------4-----------7------------7----------------------------|
E|---------3-----------x-----------5------------7----------------------------|
A|-222222222---444444444---555555555----777777777----------------------------|
   ........    ........    ........     ........



e|---------------------------------------------------------------------------|
B|-----------0-----------0-----------0-----------0---------------------------|
G|-----------0-----------0-----------0-----------0---------------------------|
D|---------------------------------------------------------------------------| Play x1
A|---------5-----------4-----------7-----------7-----------------------------|
E|---------3-----------x-----------5-----------7-----------------------------|
A|-222222222---444444444---555555555---777777777-----------------------------|
   ........    ........    ........    ........



e|---------------------------------------------------------------------------|
B|-----------0-----------0---------------------------------------------------|
G|-----------0-----------0---------------------------------------------------|
D|---------------------------------------------------------------------------| Play x1
A|---------5-----------4-------------------7---------------------------------|
E|---------3-----------x-------------------7---------------------------------|
A|-222222222---444444444---55555555555555557---------------------------------|
   ........    ........    ................



                               1,3                    2                    4
e|------------------|----------------------|--------------------|----------------------|
B|------------------|----------------------|--------------------|----------------------|
G|------------------|----------------------|--------------------|----------------------|
D|------------------|----------------------|----------------p.h.|------------------p.h.| Play x2
A|-7----------------|----------------------|-----------7h8p7-5~-|-------------7h8p7-5~-|
E|-5----------------|-5555-6666------------|-5555-6666----------|-------5h6h8----------|
A|---8888-7777-5555-|------------8888-7777-|--------------------|-5h7h8----------------|
     .... .... ....   .... ....  .... ....   .... ....




e|---------------------------------------------------------------------------|
B|---------------------------------------------------------------------------|
G|---------------------------------------------------------------------------|
D|---------------------------------------------------------------------------| Play x3
A|---------------------------------------------------------------------------|
E|---------------------------------------------------------------------------|
A|-11111111-1-11----11111111-1-11-1-00000000-0-00----0-0-0-0-0-0-------------|
   ........ . ..    ........ . .. . ........ . ..    . . . . . . 



e|---------------------------------------------------------------------------|
B|---------------------------------------------------------------------------|
G|---------------------------------------------------------------------------|
D|---------------------------------------------------------------------------| Play x3
A|---------------------------------------------------------------------------|
E|---------------------------------------------------------------------------|
A|-0-0-0-0-0-0---------------------------------------------------------------|
   . . . . . . 



                               1,3                    2                    4
e|------------------|----------------------|--------------------|----------------------|
B|------------------|----------------------|--------------------|----------------------|
G|------------------|----------------------|--------------------|----------------------|
D|------------------|----------------------|----------------p.h.|------------------p.h.| Play x2
A|-7----------------|----------------------|-----------7h8p7-5~-|-------------7h8p7-5~-|
E|-5----------------|-5555-6666------------|-5555-6666----------|-------5h6h8----------|
A|---8888-7777-5555-|------------8888-7777-|--------------------|-5h7h8----------------|
     .... .... ....   .... ....  .... ....   .... ....



                                1,2,3                         4
e|--------------------|-----------------------|------------------------------|
B|--------------------|-----------------------|------------------------------|
G|--------------------|-----------------------|------------------------------|
D|--------------------|-----------------------|------------------------------| Play x 2
A|--------------------|-----------------------|------------------------------|
E|--------------------|-----------------------|-9h12p9-8h11p8-7h10p7-6h9p6---|
A|-777-000-101010-000-|-101010-000-121212-888-|------------------------------|
   ... ... . . .  ...   . . .  ... . . .  ...



                                  1,2,3                   4
e|--------------------|--------------------------|----------------------------|
B|--------------------|--------------------------|----------------------------|
G|--------------------|--------------------------|----------------------------|
D|--------------------|--------------------------|----------------------------| Play x 2
A|--------------------|--------------------------|----------------------------|
E|--------------------|------------9h12p9-8h11p8-|-9h12p9-8h11p8-7h10p7-6h9p6-|
A|-777-000-101010-000-|-101010-000---------------|----------------------------|
   ... ... . . .  ...   . . .  ...


                                1,2,3                         4
e|--------------------|-----------------------|------------------------------|
B|--------------------|-----------------------|------------------------------|
G|--------------------|-----------------------|------------------------------|
D|--------------------|-----------------------|------------------------------| Play x 3
A|--------------------|-----------------------|------------------------------|
E|--------------------|-----------------------|-9h12p9-8h11p8-7h10p7-6h9p6---|
A|-777-000-101010-000-|-101010-000-121212-888-|------------------------------|
   ... ... . . .  ...   . . .  ... . . .  ...



                                1,2,3         
e|--------------------|-----------------------|
B|--------------------|-----------------------|
G|--------------------|-----------------------|
D|--------------------|-----------------------| Play x 1
A|--------------------|-----------------------|
E|--------------------|-----------------------|
A|-777-000-101010-000-|-101010-000-121212-888-|
   ... ... . . .  ...   . . .  ... . . .  ...


I saw a couple of posts in the forum for some tabs from the new
Fear Factory album so I thought I would have go.

I tried my best with this so don't be to harsh on it ;)


 | /    slide up
 | \    slide down
 | h    hammer on
 | p    pull off
 | b    bend
 | r    release
 | ~    vibrato
 | +    harmonic
 | p.h. Pinch Harmonic
 | .    palm mute
 | "    trem pick
 | <    volume swell

Any comments or suggestions email: saltmakesmecough@yahoo.co.uk
===============================================================================
Добавлено: 04.06.2012
Другие материалы по этой песне:

Страница создана 13.04.2012
http://primanota.ru/fear-factory/moment-of-impact-chords.htm
Привет, Гость.
Предлагаем пройти революционный курс по гитаре.
Подарок от PrimaNota.Ru, забирай!