PrimaNota.ru - самый крупный в мире бесплатный архив песенных текстов, аккордов, табулатур и нот


Fear Before The March Of Flames - What Happens In Vegas Stays In Vegas - текст песни, таба, видео

Регистрация Запомнить меня
Войти через:  Facebook Google Twitter Vk Yandex Mail.ru

Fear Before The March Of Flames - What Happens In Vegas Stays In Vegas - текст песни, таба, видео

Печатать
Просмотров: 116
         INTRO
e|--------------------------|
B|--------------------------|
G|-------2h3-2~---2--2h3~---|
D|---2h3----------2--2~-----|
A|--------------------------|
D|--------------------------|
                 LEAD
e|-------------------------------------------------------------------------|
B|-------------------------------------------------------------------------|
G|------------10----10-10-10-10-9p0-9-----------10----10-10-10-10-9-9------|
D|--------------------------------------------------------------------10---|
A|---12-12-12----12--------------------12-12-12----12----------------------|
D|-------------------------------------------------------------------------|
     
               Next part
e|-------------------|----------------------------------|
B|-------------------|------------------8---------------|
G|---3-3-3-3-3-3-3-3-|----------------8-----------------|
D|---3-3-3-3-3-3-3-3-|--------------8-------------------|
A|---1-1-1-1-1-1-1-1-|-0-0---0-0-0----------------------|
D|-------------------|-0-0---0-0-0----------------------|
                       . .   . . .  *N.H*
 
              2nd time lead
e|-------------------|--------------------------------------------------|
B|---------------6p0-|--------------------------------------------------|
G|-----------6h7-----|-------------------------------------19-19-19-19--|
D|---7h8-7h8---------|--19-19-19-19-19-19-19-19-------------------------|
A|-------------------|--------------------------20-20-20-20-------------|
D|-------------------|--------------------------------------------------|
                                ^ delayed
     Lead
e|-------------------|
B|---5h6---5h6---5---|
G|-------7-----7-----|
D|-------------------|
A|-------------------|
D|-------------------|

    Fill
e|----------------------------------------------------------|
B|---12-12-12-12-12-12-12-12-12-12-12-12-12-12-12-12-12-----|
G|---15-15-15-15-15-15-15-15-15-15-15-15-15-15-15-15-15-----|
D|----------------------------------------------------------|
A|----------------------------------------------------------|
D|----------------------------------------------------------|
  Then
e|----------------------------------------------------------|
B|---12-12-12-12-12-12-12-12-12-12-12-12-12-12-12-12-12-----|
G|---15-15-15-15-15-15-15-15-15-15-15-15-15-15-15-15-15-----|
D|---0--0--0--0--0--0--0--0--0--0--0--0--0--0--0--0--0------|
A|---0--0--0--0--0--0--0--0--0--0--0--0--0--0--0--0--0------|
D|---0--0--0--0--0--0--0--0--0--0--0--0--0--0--0--0--0------|

e|----------------------------------------|
B|----------------------------------------|
G|------3-----3-----3-----3-----3-----3---|
D|------3-----3-----3-----3-----3-----3---|
A|---1--1--1--1--1--1--1--1--1--1--1--1---|
D|----------------------------------------|

e|-----------------------------------------------------|
B|-----------------------------------------------------|
G|---12-12-12-12-10-10-10-10-12-12-12-12-9h10p9/7/5----|
D|-----------------------------------------------------|
A|-----------------------------------------------------|
D|-----------------------------------------------------|

  SOLO
e|---17----------17----------17----------17----------17/---|
B|------20-19-20----20-19-20----20-19-20----20-19-20-------|
G|---------------------------------------------------------|
D|---------------------------------------------------------|
A|---------------------------------------------------------|
D|---------------------------------------------------------|

e|-------------------------------------------------------------------------|
B|-11-11-11---11-----------------------------------------------------------|
G|----------9----9-10-9-(2x)-7-7-7---7-7-------7-7-7-7-7-7-7-7-------------|
D|---------------------------------7-----7-8-7-----------------7-8-7-(2x)--|
A|-------------------------------------------------------------------------|
D|-------------------------------------------------------------------------|

  Rhythm
e|-------------------------|
B|-------------------------|
G|-------------------------|
D|-------------------------|
A|---0-0-0--0-0--0-0-0-0---|
D|---0-0-0--0-0--0-0-0-0---|

  Chords
e|---------------------|
B|---------------------|
G|---3~--2~--5~--3~----|
D|---3~--2~--5~--3~----|
A|---1~--0~--3~--1~----|
D|---------------------|

  Lead
e|---------------------------------|
B|---------------------------------|
G|---------------------------------|
D|---0-7p0-7p0-0-0-0-7p0-7p0-0-0---|
A|---------------------------------|
D|---------------------------------|

  Outro
e|------------------------------------|
B|------------------------------------|
G|------------------------------------|
D|------------------------------------|
A|---0-0-0--0-0-0--0-0-0--0-0-0-0-0---|
D|---0-0-0--0-0-0--0-0-0--0-0-0-0-0---|

e|---------17------17-----------------17--|
B|---------x-------x------------------x---|
G|---------15------15-----------------15--|
D|----------------------------------------|
A|---0-0-0---0-0-0---0-0-0--0-0-0-0-0-----|
D|---0-0-0---0-0-0---0-0-0--0-0-0-0-0-----|


heh i know.. it took a while..
Добавлено: 19.07.2012
Другие материалы по этой песне:
  • Аккорды и текст

Страница создана 05.03.2012
http://primanota.ru/fear-before-the-march-of-flames/what-happens-in-vegas-stays-in-vegas-chords.htm
Привет, Гость.
Предлагаем пройти революционный курс по гитаре.
Подарок от PrimaNota.Ru, забирай!