PrimaNota.ru - самый крупный в мире бесплатный архив песенных текстов, аккордов, табулатур и нот


Fear Before The March Of Flames - Tycho - таба, видео

Регистрация Запомнить меня
Войти через:  Facebook Google Twitter Vk Yandex Mail.ru

Fear Before The March Of Flames - Tycho - таба, видео

Печатать
Просмотров: 80
Авторы музыки: Fear Before
Авторы текста: David Marion
FEAR BEFORE - TYCHO
tabbed by matddors@comcast.net

1. 
D|----------------------------------|
A|----------------------------------|
F|----------------------------------|
C|-8-------13-------5-------4-------|
G|-5-(16x)-10-(16x)-1-(16x)-0-(16x)-|
C|-5-------10-------1-------0-------| 2x

1.
D|------------------------------------------|
A|---8-8-------10--11----10--3-43-3--3-131--|
F|------7-7--12------12-----3-------2-----2-|
C|-58-8--8-13----13----13--5--5--5-4--4-----|
G|------------------------------------------|
C|------------------------------------------| 2x

2. 
D|---------------------------------------------------------|
A|---------------------------------------------------------|
F|---------------------------------------------------------|
C|---------------------------------------------------------|
G|---------------------------------------------------------|
C|-8505858505851070710710707107131001013101280812810707107-| 3x

3.
D|----------------------------------|
A|----------------------------------|
F|----------------------------------|
C|-8-------13-------5-------4-------|
G|-5-(16x)-10-(16x)-1-(16x)-0-(16x)-|
C|-5-------10-------1-------0-------| 2x

3.
D|------------------------------------------|
A|---8-8-------10--11----10--3-43-3--3-131--|
F|------7-7--12------12-----3-------2-----2-|
C|-58-8--8-13----13----13--5--5--5-4--4-----|
G|------------------------------------------|
C|------------------------------------------| 2x

4.
D|--------------------------------------------------|
A|----------------------13*---------11*----------9*-|
F|----------12*------12*----------12*---------------|
C|-------12*---10*13*----------12*---------10*12*---|
G|-10*13*-------------------13*---------12*---------|
C|--------------------------------------------------| 2x

5.
D|-------|-----------------------------|
A|-------|---1011p10--1011p1011p10--10-|
F|-------|-12-------12------------12---|
C|-10-12-|-----------------------------|
G|-10-12-|-----------------------------|
C|-10-12-|-----------------------------| many x

6.
D|---------------------------------|
A|---------------------------------|
F|---(6666)---(6666)-(6666)--------|
C|-8--8--8--8--8--10--1--1-0-0-0-0-|
G|-5--5--5--5--5--10--1--1-0-0-0-0-|
C|-5--5--5--5--5--10--1--1-0-0-0-0-| 1x

7.
D|---------------------------------------------|---------|
A|---------------------------------------------|---------|
F|----------------2----------------------------|---------|
C|-5-------8------3------5-------8-----12------|-4-------|
G|-1-(16x)-5-(8x)-3-(8x)-1-(16x)-5-(8x)-8-(8x)-|-0-(16x)-|
C|-1-------5------3------1-------5------8------|-0-------| 3x

7.
D|------------------------------------|-15----------------|
A|-----11------11--131511------10-----|---13b*18b*-(15b*)-|
F|---12--12--12--12------12--12--12---|-------------------|
C|-13------13--------------13---------|-------------------|
G|------------------------------------|-------------------|
C|------------------------------------|-------------------| 3x

7.
D|-------------------------------------|
A|-------------------------------------|
F|--2-23-3--2-23-7---2-23-3--2-20--0---|
C|-5-5--7-75-5--7-125-5--7-75-5---4--4-|
G|-------------------------------5--5--|
C|-------------------------------------|3x


8.
D|--------------------------------10---|
A|----------------------------10--10---|
F|----------12*----------10/12--12--12-|
C|-------12*--------12/13--------------|
G|-10*13*------10/13-------------------|
C|-------------------------------------|4x

8.
D|-------------------------------------|
A|-------------------------------------|
F|--2-23-3--2-23-7---2-23-3--2-20--0---|
C|-5-5--7-75-5--7-125-5--7-75-5---4--4-|
G|-------------------------------5--5--|
C|-------------------------------------|4x

8.
D|------------------------------------|
A|-----11------11--131511------10-----|
F|---12--12--12--12------12--12--12---|
C|-13------13--------------13---------|
G|------------------------------------|
C|------------------------------------| 4x

8.
D|----------------------------------|
A|----------------------------------|
F|----------------------------------|
C|-8-------13-------5-------4-------|
G|-5-(16x)-10-(16x)-1-(16x)-0-(16x)-|
C|-5-------10-------1-------0-------| 4x
Добавлено: 12.06.2012
Другие материалы по этой песне:
  • Аккорды и текст

Страница создана 12.06.2012
http://primanota.ru/fear-before-the-march-of-flames/tycho-chords.htm
Привет, Гость.
Предлагаем пройти революционный курс по гитаре.
Подарок от PrimaNota.Ru, забирай!