PrimaNota.ru - самый крупный в мире бесплатный архив песенных текстов, аккордов, табулатур и нот


Fear Before The March Of Flames - Taking Cassandra To The End Of The World Party - текст песни, таба, видео

Регистрация Запомнить меня
Войти через:  Facebook Google Twitter Vk Yandex Mail.ru

Fear Before The March Of Flames - Taking Cassandra To The End Of The World Party - текст песни, таба, видео

Печатать
Просмотров: 99
Авторы музыки: Fear Before
Авторы текста: Adam Fisher
i love these guys and no one really had a tab of this song
it's pretty easy and fun to jam on
check it
j money


guitar 2
e|------------------------------------------------------------------|
b|-5-(x16)--1--(x16)--1--(x8)---------------------------------------|
g|-5--------2---------2---------------------------------------------|
d|-7--------3---------3---------------------------------------------|
a|-7--------0---------3---------------------------------------------|
E|--------------------1---------------------------------------------|

piano part
(0:07)
e|------------------------------------------------------------------|
b|------------------------------------------------------------------|
g|-----------9~---------9~------(repeat a couple of times-----------|
d|----7--10------6--10----------------------------------------------|
a|------------------------------------------------------------------|
E|------------------------------------------------------------------|

guitar 1 (with delay)
(0:22)
e|----------------------------------------------|
b|----------------------------12----12----------|
g|---9~(bend up and down)--9~-----9-------------|
d|----------------------------------------------|
a|----------------------------------------------|
E|----------------------------------------------|

guitar 2
e|-----------------------------------|
b|---5-(x16)---1-(x16)---------------|
g|---5---------2---------------------|
d|---7---------3---------------------|
a|---7---------0------------2--------|
E|----------------------1-1--1-------|

guitar 1 (repeat x3)
e|------------------------------------------------------------------|
b|------------------------------------------------------------------|
g|--------9-----------9-----------9-----------9--------10-9-10------|
d|---7-10---10---7-10---10---6-10---10---6-10---10------------------|
a|---------------------------------------------------8--------------|
E|------------------------------------------------------------------|

guitar 2
e|------------|
b|--5-(x16)---|
g|--5---------|
d|--7---------|
a|--7---------|
E|------------|

CHORUS
guitar 1 (repeat throughout chorus)
e|-------7-7------------|
b|-----------5-5--6-6---|
g|----------------------|
d|--7-7-----------------|
a|----------------------|
E|----------------------|

guitar 2
e|-------------------------|
b|-------------------------|
g|-------------------------|
d|--7~----3~----2~---5~----|
a|--7~----3~----2~---5~----|
E|--5~----1~----0~---3~----|


guitar break


guitar 1 (x4)
e|---8-7--4-5--(tremelo pick)---|
b|------------------------------|
g|------------------------------|
d|------------------------------|
a|------------------------------|
E|------------------------------|

guitar 1 (till the end)
e|---12-12-12-12----------------------------------------------------|
b|----------------12-12-12-12---13-13-13-13--10-10-10-10------------|
g|-------------------(all tremelo picked)---------------------------|
d|------------------------------------------------------------------|
a|------------------------------------------------------------------|
E|------------------------------------------------------------------|

guitar 2 (till the end)
e|--------------------------------------|
b|--------------------------------------|
g|-----------(all tremelo picked)-------|
d|---7-(x8)---6-(x4)--3-(x4)--5-(x8)----|
a|---0--------0-------0-------0---------|
E|---8--------7-------4-------5---------|


piano part
(after everything cuts out)
e|---5(x12)--13(x4)----------|
b|-----(tremelo picking)-----|
g|---------------------------|
d|---------------------------|
a|---------------------------|
E|---------------------------|


any problems
hit up my myspace
www.myspace.com/uthinkursocool
Добавлено: 12.03.2012
Другие материалы по этой песне:
  • Аккорды и текст

Страница создана 12.03.2012
http://primanota.ru/fear-before-the-march-of-flames/taking-cassandra-to-the-end-of-the-world-party-chords.htm
Привет, Гость.
Предлагаем пройти революционный курс по гитаре.
Подарок от PrimaNota.Ru, забирай!