PrimaNota.ru - самый крупный в мире бесплатный архив песенных текстов, аккордов, табулатур и нот


Fear Before The March Of Flames - Go Wash Your Mouth - таба, видео

Регистрация Запомнить меня
Войти через:  Facebook Google Twitter Vk Yandex Mail.ru

Fear Before The March Of Flames - Go Wash Your Mouth - таба, видео

Печатать
Просмотров: 109
  Guitar 1     INTRO
e|-----------------------------------|
B|---6p5---6p5---6p5---6p5---6-x-x---|
G|-------4-----4-----4-----4---x-x---|
D|-----------------------------------|
A|-----------------------------------|
D|-----------------------------------| 
   Guitar 2 comes in with...       
e|------------------------------------------|
B|------------------------------------------|
G|---10p9---10p9---10p9---10p9---10-x-x-----|
D|--------8------8------8------8----x-x-----|
A|------------------------------------------|
D|------------------------------------------|

                   VERSE
e|-----------------------------------------------|
B|-----------------------------------------------|
G|---10-10-10-------10-10-10-------11-11-10-10---|
D|------------8-8-8----------8-8-8---------------|
A|-----------------------------------------------|
D|-----------------------------------------------|


e|------------------------------|
B|---5-5--5-5--5-5--5-5--0-------|
G|---4-4--4-4--4-4--4-4--5p4~---|
D|---0-0--0-0--0-0--0-0---------|
A|---0-0--0-0--0-0--0-0---------|
D|---0-0--0-0--0-0--0-0---------|

  Clean part
e|------------------------------|
B|------------------------------|
G|-------5-------4---5----------|
D|-----5---5---4-------4--------|
A|---5-------5-----5------------|
D|------------------------------|

  Then
e|----------------------------------|
B|---4-4-4-----4-4-4-5-----4-4------|
G|---2-2-2-----2-2-2-3-----2-2------|
D|---0-0-0-----0-0-0-0-----0-0------|
A|---0-0-0-0---0-0-0-0--0--0-0-0----|
D|---------0------------0------0----|


e|-----0----0----0----0----0----0---|
B|--5^-0-5^-0-5^-0-7^-0-7^-0-7^-0---|
G|--7^---7^---7^---9^---9^---9^-----|full  bends
D|----------------------------------|
A|----------------------------------|
D|----------------------------------|

e|----------------------------------|
B|----------------------------------|
G|---3-3-x-x-x-x-3/6\3--------------|
D|---2-2-x-x-x-x-2/5\2--------------|
A|----------------------------------|
D|----------------------------------|

e|-----------------------------------------------------------------|-------|
B|-------------5--------------5-------------5--------------5-------|---5---|
G|-----3----------------3-------3-------------3-----3--------------|---3---|
D|---3---3---3----3---3---3-------3---3---3-----3-3---3-3-3--------|---3---|
A|-5-------5--------5-------5-------5---5--------------------------|---5---|
D|-----------------------------------------------------------------|-------|
PM . . . . . .    . . . . . .   . . . . . .   . . . . . . .


e|----------------------------|
B|----------------------------|
G|---5-------9-------7--------|
D|---x-[x16]-x-[x16]-x-[16x]--|
A|---3-------7-------5--------|
D|----------------------------|

          OUTRO
e|----------------------|
B|---6p0---------0------|
G|-------9p0-8h9--------|
D|----------------------|
A|----------------------|
D|----------------------|
Добавлено: 30.07.2012
Другие материалы по этой песне:

Страница создана 19.04.2012
http://primanota.ru/fear-before-the-march-of-flames/go-wash-your-mouth-chords.htm
Привет, Гость.
Предлагаем пройти революционный курс по гитаре.
Подарок от PrimaNota.Ru, забирай!