PrimaNota.ru - самый крупный в мире бесплатный архив песенных текстов, аккордов, табулатур и нот


Fear And Loathing In Las Vegas - Swing It - таба, видео

Регистрация Запомнить меня
Войти через:  Facebook Google Twitter Vk Yandex Mail.ru

Fear And Loathing In Las Vegas - Swing It - таба, видео

Печатать
Просмотров: 176
this is exactly like what i've play in the video :D
please subscribe my channel to see my next update :)
and here the reference video http://youtu.be/EblWrF_me9A
Ok here we go XD ( sorry for my bad english )

Tuning : Drop C

h = hammer on
p = pull off
b = bend
* = palm mute
s = slide
~ = vibrato


INTRO

D|--------------------------------|--------------------------------| \
A|--------------------------------|--------------------------------|  \
F|--------------------------------|--------------------------------|   \
C|------3--3-3-3-----3------------|------3--3-3-3------------------|   /  2x
G|-1111-1--1-1-1--11-1--1---------|-1111-1--1-1-1--------0-1-3-----|  /
C|------------------------3-1-----|----------------0-1-3-----------| /
   ****    *      **                ****    *


D|--------------------------------|--------------------------------|
A|--------------------------------|----------------6---------------|
F|-3-2h3-5-3-2--2-3---------------|-3-2h3-5-3-2--2---3-------------|
C|------------------3-------------|--------------------------------|
G|--------------------------------|--------------------------------|  
C|--------------------------------|--------------------------------|

D|-----------------------------------------------------------------|
A|-----------------------------------------------------------------|
F|-3-2h3-5-3-2--2-3--------3s5-5s7-----10-8-7----------------------|
C|------------------3--3-3---------7-7--------10-8-----------------|
G|-----------------------------------------------------------------|  
C|-----------------------------------------------------------------|
                       * *         * *

D|-----------------------------------------------|
A|-----------------------------------------------|
F|-----8p7-10p7-8-7-8-7----8-7h8-10-8-7-7--------|
C|-8-8-----------------------------------8-------|
G|-----------------------------------------------|  
C|-----------------------------------------------|
   * *   

D|---------------------------------------------------|
A|----------------------------11-10-11-10----10-11---|
F|-----8p7-10p8-7-8-7---10-12-------------12---------|
C|-8-8-----------------------------------------------|
G|---------------------------------------------------|  
C|---------------------------------------------------|
   * *


D|-----------------------------------------------------------------|
A|-----------------------------------------------------------------|
F|-----------------------------------------------------------------|
C|----8----------8-----7-------7------5-------5----5-------5-------|
G|-10---10-10-10-----8---8-8-8------6---6-6-6----6---6-6-6---------|  
C|-----------------------------------------------------------------|



D|--------------------|
A|-------------1616---|
F|-------------****---|
C|-777-8-8-8---1313---|
G|-888-101010---------|  
C|--------------------|

CHORUS

D|-------------------------------------------------------|
A|-------------------------------------------------------|
F|---------10p8-8-7-8-7-8-10~--8-7-8-7-------------------|
C|-8-8-8-8-----------------------------10-8-7---7-8-10---|
G|--------------------------------------------8----------| 
C|-------------------------------------------------------|
     * * *

D|-----------------------------------------------------------------|
A|-----------------------------------------------------------------|
F|------------------------------------------8888-7-8-7-------------|
C|-10b11-10-8----8---10b11-10-8-10-1010-888------------------------|
G|------------10---------------------------------------------------|  
C|-----------------------------------------------------------------|

D|-------------------------------------------------------------------|---------------------|
A|-----------------------------------10-11-10-13~-10-11-13-15-13-10--|--11~-11-11-10-8-11--|
F|---------10p8-8-7-8-7-8-10~--8-10~---------------------------------|---------------------|
C|-8-8-8-8-----------------------------------------------------------|---------------------|
G|-------------------------------------------------------------------|---------------------|
C|-------------------------------------------------------------------|---------------------|
     * * *

D|--------------------|-------------------------|--------------------|--------------------|
A|--------------------|-151515-15----15---------|--------------------|--------------------|
F|--------------------|-171717-17b19----17-17---|--------------------|--------------------|
C|-5-0-3-0-5-0--s10---|-------------------------|-5-0-3-0-5-0--s10---|------1-------3-----|
G|--------------------|-------------------------|--------------------|------1-------3-----| 
C|--------------------|-------------------------|--------------------|-1111-1--3333-3-----|
                                                                       ****    ****

D|--------------------------------------|--------------------------|-----------------------|
A|--------------------------------------|--------------------------|-----------------------|
F|------------------------------10-8-7--|--------------------------|-----------------------|
C|-------8----7-8----8-----7----8--7-5--|-----11---------7-8-10-8--|-4-4-4--6--------------|
G|-10-10---10-----10---6-8---8----------|-9-9----7-8-10------------|-4-4-4--6--------------|
C|--------------------------------------|--------------------------|-4-4-4--6--------------|
   *  *    *      *      *                * *


D|-----------------------------------------------------------------------|\
A|-----------------------------------------------------------------------| \
F|-----------------------------------------------------------------------|  \
C|-3--3-3--3--3-3-1---0--0-0--0--0-0---1--1-1--1--1-1---3--3-3--4-4-3-3--|  / 2X
G|-1--1-1--1--1-1-1---0--0-0--0--0-0---1--1-1--1--1-1---3--3-3--4-4-3-3--| / 
C|--------------------0--0-0--0--0-0---1--1-1--1--1-1---3--3-3--4-4-3-3--|/

D|-------------------------|
A|-------------------------|
F|-------------------------|
C|-3-3-3--3-3-3--3-3-3-3---|
G|-1-1-3--1-1-3--1-1-3-1---| 
C|-----3------3------3-----|

SOLO

D|-s18----18----18--20-18-17-17---------------------------------|
A|-----18----18-----------------18-16-15-------16s18------------|
F|--------------------------------------17-15-------------------|
C|--------------------------------------------------------------|
G|--------------------------------------------------------------|  
C|--------------------------------------------------------------|

D|-----------------------------17-18--17-18-20-18-17---------------------------------------|
A|-------15-16-18--16-15-16-18-----------------------18---15b16----------------------------|
F|-15-17--------------------------------------------------------17-15-----15-17-15-17-12~--|
C|---------------------------------------------------------------------15------------------|
G|-----------------------------------------------------------------------------------------|  
C|-----------------------------------------------------------------------------------------|


D|-----------------------------------------|
A|-----------------------------------------|
F|-8-8-9-8~--8-8-9-8-12-13-s15---1-1-------|
C|-x-x-x-x~--x-x-x-x-x--x--x-----1-1-------|
G|-5-5-6-5~--5-5-6-5-9--10-s12---1-1-------|
C|-----------------------------------------|


D|-----------------------------------------------------------|
A|-13b-11-----13b-11--------11-13--13-13-11------------------|
F|--------12---------12--12-----------------10-10-12---------|
C|----------------------------------------------------1-1-1--|
G|----------------------------------------------------1-1-1--|
C|----------------------------------------------------1-1-1--|


D|---------------------------------15-15-15-13-13-13-------13--------|
A|-13b-11-----13b-11--------11-13--------------------15-15----15-13--|
F|--------12---------12--12------------------------------------------|
C|-------------------------------------------------------------------|
G|-------------------------------------------------------------------|
C|-------------------------------------------------------------------|

D|----------s18-17-18-18~--17-22-22-22-22-22-22-22-22-22-------------|
A|-------------------------------------------------------------------|
F|-8~~~--------------------------------------------------------------|
C|-x-----------------------------------------------------------------|
G|-5~~~--------------------------------------------------------------|
C|-------------------------------------------------------------------|

D|----------------------------------------------------------------|
A|----------------------------------------------------------------|
F|-8~-6~-4~--1~-8-6-8-s10--11-11-11-11-11-11-11-10-10-10-10-10----|
C|-x~-x~-x~--x~-x-x-x-sx---x--x--x--x--x--x--x--x--x--x--x--x-----|
G|-5~-3~-1~--4~-5-3-5-s7---8--8--8--8--8--8--8--7--7--7--7--7-----|
C|----------------------------------------------------------------|

D|---------------------------------------|------------|          \
A|---------------------------------------|------------|           \
F|-3-3-3-3-3-3-5-5-5-5-7-7---------------|-8-7-5-7----|            \
C|-3-3-3-3-3-3-3-3-3-3-3-3--3-3-3-3-3-3--|-8-8-5-5----|             \
G|--------------------------3-3-3-3-3-3--|------------|              \
C|--------------------------3-3-3-3-3-3--|------------|               \
                                                                      /  2X
D|-------------------------------------------|-----------------|     /
A|-------------------------------------------|-----------------|    /
F|-------------------------------------------|-10-10-10-12-12--|   /
C|-5---5---3h5--7---7---5h7--8---8---7h8-10--|-x--x--x--x--x---|  /
G|-3-3---3------5-5---5------6-6---6-----8---|-7--7--7--9--9---| /
C|-------------------------------------------|-----------------|/
     *   *        *   *        *   *

D|------------------------------------------------|
A|------------------------------------------------|
F|------------------------------------------------|
C|-1-1-1-1-1-1-3-3-3-3-3-3-5-5-5-5-5-5-3-3-3-3-3--|
G|-1-1-1-1-1-1-3-3-3-3-3-3-5-5-5-5-5-5-3-3-3-3-3--|
C|-1-1-1-1-1-1-3-3-3-3-3-3-5-5-5-5-5-5-3-3-3-3-3--|

D|------------------------------------------------|
A|------------------------------------------------|
F|------------------------------------------------|
C|-1-1-1-1-1-1-3-3-3-3-3-3-5-5-5-5-5-5-3-3-3-3-3--|
G|-1-1-1-1-1-1-3-3-3-3-3-3-5-5-5-5-5-5-1-1-1-1-1--|
C|-1-1-1-1-1-1-3-3-3-3-3-3-5-5-5-5-5-5------------|

D|------------------------------------------------|
A|------------------------------------------------|
F|------------------------------------------------|
C|-1-1-1-1-1-1-3-3-3-3-3-3-5-5-7-7-8-8-10-10------|
G|-1-1-1-1-1-1-3-3-3-3-3-3-5-5-7-7-8-8-8--8-------|
C|-1-1-1-1-1-1-3-3-3-3-3-3-5-5-7-7-8-8------------|

D|------------------------------------------------|
A|------------------------------------------------|
F|------------------------------------------------|
C|-1-1-1-1-1-1-3-3-3-3-3-3-5-5-5-5-5-5-3-3-3-3-3--|
G|-1-1-1-1-1-1-3-3-3-3-3-3-5-5-5-5-5-5-1-1-1-1-1--|
C|-1-1-1-1-1-1-3-3-3-3-3-3-5-5-5-5-5-5------------|

D|-----------------------|
A|-----------------------|
F|-----------------------|
C|-1-1-1-1-1-1-3-3-3--S--|
G|-1-1-1-1-1-1-3-3-3--S--|
C|-1-1-1-1-1-1-3-3-3--S--|

OUTRO

D|---------------------------|--------------------------------|
A|---------------------------|--------------------------------|
F|---------------------------|--------------------------------|
C|---------------------------|--------------------------------|
G|--------------1---1-1------|--------------------------------|
C|-5-3-5--0-0-0---3-----3-1--|-5-3-5--0-0-0-0-3-5-0-3-5-------|
          * * *                       * * *

D|---------------------------|--------------------------------|
A|---------------------------|--------------------------------|
F|---------------------------|--------------------------------|
C|---------------------------|--------------------------5-----|
G|--------------1---1-1------|--------------------------5-----|
C|-5-3-5--0-0-0---3-----3-1--|-5-3-5--0-0-0-0-3-5-0-3-5-5-----|
          * * *                       * * *
Добавлено: 17.06.2015
Другие материалы по этой песне:
  • Аккорды и текст

Страница создана 17.06.2015
http://primanota.ru/fear-and-loathing-in-las-vegas/swing-it-chords.htm
Привет, Гость.
Предлагаем пройти революционный курс по гитаре.
Подарок от PrimaNota.Ru, забирай!