PrimaNota.ru - самый крупный в мире бесплатный архив песенных текстов, аккордов, табулатур и нот


Fear And Loathing In Las Vegas - Party Boys - таба, видео

Регистрация Запомнить меня
Войти через:  Facebook Google Twitter Vk Yandex Mail.ru

Fear And Loathing In Las Vegas - Party Boys - таба, видео

Печатать
Просмотров: 156
Уроки эстрадного вокала в Санкт-Петербурге
Riff 1

D---------------------------------------------------------------------------------------------
A---------------------------------------------------------------------------------------------
F---------------------------------------------------------------------------------------------
C--xx-8-xx-8-xx-8/6-6-xx-8-xx-8--------xx-8-xx-8-xx-8/6-6-xx-8-xx-8---------------------------
G--xx-6-xx-6-xx-6/4-4-xx-6-xx-6-8-6-4--xx-6-xx-6-xx-6/4-4-xx-6-xx-6-9-9-8-6-8-6-4-------------
C-------------------------------8-6-4-------------------------------9-9-8-6-8-6-4-------------

Riff 2

D------------------------------------------ ...
A------------------------------------------ ...
F------------------------------------------ ...
C------------------------------------------ ...
G--1--1-1-1-1--1-1-1-1--1-1-1-1-1-1-1-1-1-1 ...
C--1--1-1-1-1--1-1-1-1--1-1-1-1-1-1-1-1-1-1 ...

etc

Riff 3

D-------------------------------------------------------------------
A-------------------------------------------------------------------
F-------------------------------------------------------------------
C--------------------------------------------------4-4-4-4-6-6-6-6--
G-------------4-4------------------------------4-4-2-2-2-2-4-4-4-4--
C--1-1-4-4-6-6----1-1-4-4-6-6-4-4--1-1-4-4-6-6----------------------

Riff 4

D-----------------------------------------------------------------------------
A-----------------------------------------------------------------------------
F-----------------------------------------------------------------------------
C-----6-6-6-----6-6-6-----6-6-6----------6-6-6-----6-6-6-----6-6-6------------
G--1--4-4-4--1--4-4-4--1--4-4-4--8-2--1--4-4-4--1--4-4-4--1--4-4-4--6-8-------
C--1---------1---------1---------8-2--1---------1---------1---------6-8-------

Riff 5

D--------------------------------------------------------------------
A--------------------------------------------------------------------
F--------------------------------------------------------------------
C--------------------------------------------------------------------
G--0-0-0-0-2-2-2-2-4-4-4-4-4-4-4-4--0-0-0-0-2-2-2-2-4-4-4-4-4-4-2-2--
C--0-0-0-0-2-2-2-2-4-4-4-4-4-4-4-4--0-0-0-0-2-2-2-2-4-4-4-4-4-4-2-2--

Riff 6

D-----------------------------------------------------
A-----------------------------------------------------
F-----------------------------------------------------
C---4-6-4-6-6^-6^-6^-6-4--6/8---11-11-11-13-11-6-8----
G--6--------------------6-4/6---9--9--9--11-9--4-6----
C-----------------------------------------------------

Riff 7 (not exactly that)

D----------------------------------------------------------------------------------------
A----------------------------------------------------------------------------------------
F----------------------------------------------------------------------------------------
C--11-14-13-9-13-13-14-11-14-13-9-13-13-14--11-14-13-9-18-18-16-16-21-19-16-18-19-16-11--
G--9--12-11-7-11-11-12-9--12-11-7-11-11-12--9--12-11-7-16-16-14-12-19-17-14-16-17-14-9---
C----------------------------------------------------------------------------------------

D-------------------------------------
A-------------------------------------
F-------------------------------------
C--11--13-14-16-17-17-17-17-17-17-17--
G--9---11-12-14-15-15-15-15-15-15-15--
C-------------------------------------

Final Riff :

D----------------------------------------------------------------------
A----------------------------------------------------------------------
F----------------------------------------------------------------------
C--------------------4-4-4-4-4-4-4-4------------------3-3-3-3-3-3-3-3--
G--1-1-1-1-1-1-1-1-1-2-2-2-2-2-2-2-2-6-6-6-6-6-6-6-6--1-1-1-1-1-1-1-1--
C--1-1-1-1-1-1-1-1-1-----------------6-6-6-6-6-6-6-6-------------------

D-------------------------
A-------------------------
G-------------------------
C-----4-4-6-6-6-----------
G--1--2-2-4-4-4-1-1-4-1---
C--1------------1-1-4-1---
Добавлено: 17.06.2016
Другие материалы по этой песне:
  • Аккорды и текст

Страница создана 17.06.2016
http://primanota.ru/fear-and-loathing-in-las-vegas/party-boys-chords.htm
Привет, Гость.
Предлагаем пройти революционный курс по гитаре.
Подарок от PrimaNota.Ru, забирай!