PrimaNota.ru - самый крупный в мире бесплатный архив песенных текстов, аккордов, табулатур и нот


Fazil Say - Alla Turca - бас-таба, видео

Регистрация Запомнить меня
Войти через:  Facebook Google Twitter Vk Yandex Mail.ru

Fazil Say - Alla Turca - бас-таба, видео

Печатать
Просмотров: 96
Уроки эстрадного вокала в Санкт-Петербурге
-------------------------------------------------------------------------------
                    --Turkish March Jazz by Fazil Say--
-------------------------------------------------------------------------------
Turkish march from Mozart recreated by Fazil Say
Tabbed by: Joel G.Y.

This is a bass for the Turkish March Jazz Fantasia written for piano
You can play this on guitar or a bass to cover piano.

Tuning: Standard
         for guitar: EADGBe
         for bass:   EADG

Starting Classical Part
G|----------------------------------------|
D|----------------------------------------|
A|12------12------12------12------12------|  Play it till the Jazz part
E|----12------12------12------12------12--|

Starting Jazz part
G|----------------------------------------------------------|
D|----------------------------------------------------------|
A|12------12------12------12------12------------------11----|
E|----12------12------12------12------12--13--10--12--------|

'F' Upbeat 
G|---------------------------------------------------------------------------|
D|---------------------------------------------------------------------------|
A|12------12------12-------------------------------12------------------------|
E|----12------12------12--13----13----10----7--12----------------------------|

Interlude
G|---------------------------------------------------------------------------|
D|---------------------------------------------------------------------------|
A|-----------10-----------10----12-------------------------------------------|
E|----8--12--------8--12------------8--12------------------------------------|

'F' Upbeat 
G|---------------------------------------------------------------------------|
D|---------------------------------------------------------------------------|
A|12------12------12-------------------------------12------------------------|
E|----12------12------12--13----13----10----7--12----------------------------|

Beat closer 
G|---------------------------------------------------------------------------|
D|---------------------------------------------------------------------------|
A|12------12------12-----------12------12-------------12---------------------|    2x
E|----12------12------7--12--------12------12--7--12-------------------------|

There is a part where the piano plays the bridge once without the bass.


Bridge
G|---------------------------------------------------------------------------|
D|---------------------------------------------------------------------------|
A|--------12--11---------12--11---------12--11-------------------------------|   2x
E|----14----------9--14----------9--14----------9--14--9--14-----------------|

Here comes a classical part just like the intro. I leave this for the piano.


Interlude
G|---------------------------------------------------------------------------|
D|---------------------------------------------------------------------------|
A|-----------10-----------10----12-------------------------------------------|
E|----8--12--------8--12------------8--12------------------------------------|

'F' Upbeat 
G|---------------------------------------------------------------------------|
D|---------------------------------------------------------------------------|
A|12------12------12-------------------------------12------------------------|
E|----12------12------12--13----13----10----7--12----------------------------|

Beat closer (And the end of the song)
G|--------------------------------------------------------14 (just a closer 'A')|
D|------------------------------------------------------------------------------|
A|12------12------12-----------12------12-------------12------------------------|
E|----12------12------7--12--------12------12--7--12----------------------------|

This is how I and my pianist friend play the song. We didn't find that others play 
this with a guitar or a bass so we took the piano bass and created this. We played it
on stage, and it wasn't so bad. So if you're searching for a great song for piano AND guitar
or bass, this is for you!

If you have any questions or correction, you can write it to me in comments or to nnb@mailbox.hu


| /  slide up
| \  slide down
| h  hammer-on
| p  pull-off
| ~  vibrato
| +  harmonic
| x  Mute note
===============================================================================
Добавлено: 06.12.2015
Другие материалы по этой песне:
  • Аккорды и текст

Страница создана 06.12.2015
http://primanota.ru/fazil-say/alla-turca-chords.htm
Привет, Гость.
Предлагаем пройти революционный курс по гитаре.
Подарок от PrimaNota.Ru, забирай!