PrimaNota.ru - самый крупный в мире бесплатный архив песенных текстов, аккордов, табулатур и нот


Faylan - Dead End - Mirai Nikki Opening 2 - таба, видео

Регистрация Запомнить меня
Войти через:  Facebook Google Twitter Vk Yandex Mail.ru

Faylan - Dead End - Mirai Nikki Opening 2 - таба, видео

Печатать
Просмотров: 222
Уроки эстрадного вокала в Санкт-Петербурге
-------------------------------------------------------------------------------
                             Dead End - Faylan
-------------------------------------------------------------------------------
Tabbed by: aawwwf4u
E-mail: aawwwf4u@gmail.com

Tuning: Standard

Note: This is the anime's opening, not the full version.


INTRO

e|---------------------------------------------------------------------------|
B|--9-8----------------------------------9-8-----------------9-8-------------|
G|------10-8-------------------8-------------10-8-------8-10------8-10-------|
D|-----------11-10--10-8-10-11--------------------11-10----------------------|
A|---------------------------------------------------------------------------|
E|---------------------------------------------------------------------------|

e|---------------------------------------------------------------------------|
B|--9-8----------------------------------9-8---------8-9-11-9-11-13----------|
G|------10-8------------------8--------------10-8-10-------------------------|
D|-----------11-10-10-8-10-11------------------------------------------------|
A|---------------------------------------------------------------------------|
E|---------------------------------------------------------------------------|

VERSE

e|---------------------------------------------------------------------------|
B|---------------------------------------------------------------------------|
G|------------------------------------------8--------------------------------|
D|-----8-10-8-10-8-11-10-8-------8-10-10-10---10-----------------------------|
A|--11------------------------11---------------------------------------------|
E|---------------------------------------------------------------------------|

e|---------------------------------------------------------------------------|
B|---------------------------------------------------------------------------|
G|--------------------------------8-10-8-------------------------------------|
D|-----8-10-10-10-10-11-10-8-10----------8-----------------------------------|
A|--11-----------------------------------------------------------------------|
E|---------------------------------------------------------------------------|

e|---------------------------------------------------------------------------|
B|--9-8-9-8--------------8-------------9-8-9-8---------------9-11-9----------|
G|----------8-8---8-8-10---10-8----------------8-8---8-10-10--------10-------|
D|------------------------------10-------------------------------------------|
A|---------------------------------------------------------------------------|
E|---------------------------------------------------------------------------|

  At this point, listen to the song to figure out the rythm.

e|---------------------------------------------------------------------------|
B|--------------------------------------9-11-9-8-----------------------------|
G|--10-10-10-10-10-10-10-10-10-10-10-10--------------------------------------|
D|---------------------------------------------------------------------------|
A|---------------------------------------------------------------------------|
E|---------------------------------------------------------------------------|

e|---------------------------------------------------------------------------|
B|-----------------------------------9-11-9-12-------------------------------|
G|--10-10-10-10-10-10-10-10-10-10-10-----------------------------------------|
D|---------------------------------------------------------------------------|
A|---------------------------------------------------------------------------|
E|---------------------------------------------------------------------------|

PRE-CHORUS

e|---------------------------------------------------------------------------|
B|--9-9--------------------11-11-9-------9-9---------------------------------|
G|------12-10-10-12-12-------------12-12-------------8-----------------------|
D|-----------------------------------------------------11-10-----------------|
A|---------------------------------------------------------------------------|
E|---------------------------------------------------------------------------|

e|---------------------------------------------------------------------------|
B|-------------------------------------9-11-13-------------------------------|
G|----------13-12-9-10-12-----12-12-12---------------------------------------|
D|--10-8-10------------------------------------------------------------------|
A|---------------------------------------------------------------------------|
E|---------------------------------------------------------------------------|

CHORUS

e|---------------------------------------------------------------------------|
B|-------9-11-13-13-11-9-11-----------8-9-11---9-8-9-9-----------------------|
G|--8-10-------------------------8-10----------------------------------------|
D|---------------------------------------------------------------------------|
A|---------------------------------------------------------------------------|
E|---------------------------------------------------------------------------|

e|-------------------9-8-----------------------------------------------------|
B|--8-9-11-13-11-9-8------11-9-8-9-11----------------------------------------|
G|---------------------------------------------------------------------------|
D|------------------------------------10-------------------------------------|
A|---------------------------------------------------------------------------|
E|---------------------------------------------------------------------------|

e|--------------------------------------9-8----------------------------------|
B|------------------------------------------11-9-----------------------------|
G|--10-8------8-10------12------12-10-9--------------------------------------|
D|---------11------10-9------------------------------------------------------|
A|---------------------------------------------------------------------------|
E|---------------------------------------------------------------------------|

e|-------------------9-8-------------------9-11-9-8-------------9-8-6--------|
B|--9-11-9-11-13---9-----11-11-------11-11----------9-----9-9-9--------------|
G|---------------------------------------------------------------------------|
D|---------------------------------------------------------------------------|
A|---------------------------------------------------------------------------|
E|---------------------------------------------------------------------------|

OUTRO
(Heard very distinctly in the background)

e|--16-15--------------------------------16-15----------15-16-18-16-18-20----|
B|--------18-16-------------------16-----------18-16-18----------------------|
G|--------------18-17-17-15-17-18--------------------------------------------|
D|---------------------------------------------------------------------------|
A|---------------------------------------------------------------------------|
E|---------------------------------------------------------------------------|

e|---------------------------------------------------------------------------|
B|--------4------------------------------------------------------------------|
G|----3-----6-5-3-3-3--------------------------------------------------------|
D|--3---3--------------------------------------------------------------------|
A|---------------------------------------------------------------------------|
E|---------------------------------------------------------------------------|

That's all. If you have questions feel free to e-mail me. :)

Добавлено: 10.11.2015
Другие материалы по этой песне:
  • Аккорды и текст

Страница создана 10.11.2015
http://primanota.ru/faylan/dead-end-mirai-nikki-opening-2-chords.htm
Привет, Гость.
Предлагаем пройти революционный курс по гитаре.
Подарок от PrimaNota.Ru, забирай!