PrimaNota.ru - самый крупный в мире бесплатный архив песенных текстов, аккордов, табулатур и нот


Favorite - Anarcho Rap - таба, видео

Регистрация Запомнить меня
Войти через:  Facebook Google Twitter Vk Yandex Mail.ru

Favorite - Anarcho Rap - таба, видео

Печатать
Просмотров: 80
-------------------------------------------------------------------------------
                             Anarcho Rap - Favorite
-------------------------------------------------------------------------------
Tabbed by: Me
E-mail: No

Tuning: EAdghe

e|-----------0---0----5--1---------------------------------------------------|
B|---0--1--3---3-----------3----5--1------3--1--0---------0------------------|
G|-2---------------------------------2------------2--1--2---1----------------| repeat through whole song
D|---------------------------------------------------------------------------|
A|---------------------------------------------------------------------------|
E|---------------------------------------------------------------------------|
 
End
e|-----------0---0----5--1-------------------------------------------0--5----|
B|---0--1--3---3-----------3----5--1------3--1--0---------0------------------|
G|-2---------------------------------2------------2--1--2---1--2~------------|
D|---------------------------------------------------------------------------|
A|---------------------------------------------------------------------------|
E|---------------------------------------------------------------------------|


************************************

| /   slide up
| \   slide down
| h   hammer-on
| p   pull-off
| ~   vibrato
| +   harmonic
| x   Mute note
| b   Bend
| pb  Pre-bend
| br  Bend release
| pbr Pre-bend release
| brb Bend release bend

************************************
Добавлено: 01.06.2016
Другие материалы по этой песне:
  • Аккорды и текст

Страница создана 01.06.2016
http://primanota.ru/favorite/anarcho-rap-chords.htm
Привет, Гость.
Предлагаем пройти революционный курс по гитаре.
Подарок от PrimaNota.Ru, забирай!