PrimaNota.ru - самый крупный в мире бесплатный архив песенных текстов, аккордов, табулатур и нот


Favored Nations - The Set Up - бас-таба, видео

Регистрация Запомнить меня
Войти через:  Facebook Google Twitter Vk Yandex Mail.ru

Favored Nations - The Set Up - бас-таба, видео

Печатать
Просмотров: 488
Уроки эстрадного вокала в Санкт-Петербурге
-------------------------------------------------------------------------------
                             THE SET UP - Favored Nations
-------------------------------------------------------------------------------
Tabbed by: Dylan Park (tungp)
Blog: http://desynchronisation.tumblr.com

Well hello fellow Grand Theft Auto V fan who plays bass and is looking for a
bass tab for The Set Up. Or maybe not, but heard this song elsewhere.

This is my very first time ever transcribing a song, so please, cut me some
slack and I would honestly APPRECIATE your correcting (unless your correction
looks or sounds weird). Anyways, this definitely isn't 100% correct, and it'll
need revising, but this was the best I was able to do.

Favored Nations has become one of my new favourite bands out, and I'm looking
forward to  a full-length album soon enough. Unfortunately, FN aren't a very
well-known band, which led to a lack of tablatures, chords etc. on the
Internet.

I took the challenge to transcribe this  song, with the help of two bass
covers on YouTube. Hopefully they will look at this work done.

Tuning: Standard tuning (G D A E)

0:00
G|---------------------------------------------------------------------------|
D|------9999\0---------------------------------------------------------------|
A|---------------------------------------------------------------------------|
E|------------------7777\0---------------------------------------------------|

0:07 - 2x (play end G note once second time)
G|---------------------------------------------------------------------------|
D|---------------------------------------------------------------------------|
A|--2-22--0--00000-----------------------------------------------------------|
E|-------------------2-22---3--33333-----------------------------------------|

0:22
G|-------4-------------------------------------------------------------------|
D|-------------------------------55------------------------------------------|
A|--2-22--0--00--------------------0-----------------------------------------|
E|------------------02--22--3--33--------------------------------------------|

0:30
G|-------4----------------2--------------------------------------------------|
D|---------------------------------------------------------------------------|
A|--2-22--0--00------------0-------------------------------------------------|
E|------------------02--22--3------------------------------------------------|

0:38 - 2x
G|-------4-----22------------------------------------------------------------|
D|-----------------------------55--------------------------------------------|
A|--2-22--0--00------------------220-----------------------------------------|
E|------------------02--22--3------------------------------------------------|

0:53
G|-------4-------------------------------------------------------------------|
D|-----------------------------55--------------------------------------------|
A|0h2~22--0--00------------------220-----------------------------------------|
E|---------------02--22--3---------------------------------------------------|

1:01
G|-------4-------------------------------------------------------------------|
D|-----------------------------55--------------------------------------------|
A|--2-22--0--00---------0--------0-------------------------------------------|
E|---------------02--220-3---33----------------------------------------------|

1:09
G|-------4-----22------------------------------------------------------------|
D|---------------------------------------------------------------------------|
A|--2-22--0--00---------0------2202------------------------------------------|
E|---------------02--220-3---33----------------------------------------------|

1:16
G|-------4-------------2-------44--------------------------------------------|
D|-------------------------------0-------------------------------------------|
A|0h2~22--0--00---------0----------------------------------------------------|
E|---------------02--22--3---33----------------------------------------------|

1:24
G|-------4-------------------------------------------------------------------|
D|-----------------------------55--------------------------------------------|
A|--2-22--0--00---------0--------220-----------------------------------------|
E|---------------02--22--3---------------------------------------------------|

1:32 - 5x
G|---------------------------------------------------------------------------|
D|---------------------------------------------------------------------------|
A|--2-22--22--22-0-----------------------------------------------------------|
E|---------------------------------------------------------------------------|

1:50
G|---------------------------------------------------------------------------|
D|---------------------------------------------------------------------------|
A|--2-22--22--9999\0---------------------------------------------------------|
E|---------------------------------------------------------------------------|

1:54 (guitar comes in)
G|-----------22--------------------------------------------------------------|
D|------------------------------55-------------------------------------------|
A|--2-22--0----00-----------------220----------------------------------------|
E|---------------02--22--3---------------------------------------------------|

2:02
G|-------4----22-------------------------------------------------------------|
D|------------------------------55-------------------------------------------|
A|--2-22--0-00---------0----------220----------------------------------------|
E|--------------02--220-3----------------------------------------------------|

2:10 (this part may is incorrect, but it was the best I could do)
G|----44---------------------------------------------------------------------|
D|------------------------------55-------------------------------------------|
A|--2---020--00--------0----------220----------------------------------------|
E|--------------02--220-3----------------------------------------------------|

2:18
G|-------4-----22------------------------------------------------------------|
D|---------------------5---------55------------------------------------------|
A|--2-22--00-00---------0----------220---------------------------------------|
E|---------------02--22--3---------------------------------------------------|

2:25 (you should be able to figure out the pattern here)   2:55
G|---------------------------------------------------------------------------|
D|-------------------------------------------------------------9999\0--------|
A|-02-22--2---00000----------------------------------------------------------|
E|---------------------------------------------------------------------------|

2:56
G|---------------------------------------------------------------------------|
D|---------------------------------------------------------------------------|
A|-22-222--0~0000000---------------------------------------------------------|
E|-------------------2-22-3~3333333------------------------------------------|

3:04
G|---------------------------------------------------------------------------|
D|---------------------------------------------------------------------------|
A|-22222222000000000---------------------------------------------------------|
E|-----------------2222222333333333------------------------------------------|

3:12 - 4x
G|---------------------------------------------------------------------------|
D|---------------------------------------------------------------------------|
A|-2222222222222220----------------------------------------------------------|
E|---------------------------------------------------------------------------|

So that's how much I was able to transcribe. After that riff at 3:12, I
wasn't able to transcribe the rest. You can work your way out and continue on
with the main riff or have a go and try and transcribe that part yourself. =)


| /  slide up
| \  slide down
| h  hammer-on
| p  pull-off
| ~  vibrato
| +  harmonic
| x  Mute note
===============================================================================
Добавлено: 11.09.2014
Другие материалы по этой песне:
  • Аккорды и текст

Страница создана 11.09.2014
http://primanota.ru/favored-nations/set-up-chords.htm
Привет, Гость.
Предлагаем пройти революционный курс по гитаре.
Подарок от PrimaNota.Ru, забирай!