PrimaNota.ru - самый крупный в мире бесплатный архив песенных текстов, аккордов, табулатур и нот


Favela - Gong - таба, видео

Регистрация Запомнить меня
Войти через:  Facebook Google Twitter Vk Yandex Mail.ru

Favela - Gong - таба, видео

Печатать
Просмотров: 164
Уроки эстрадного вокала в Санкт-Петербурге
-------------------------------------------------------------------------------
                             Gong - Favela
-------------------------------------------------------------------------------
Tabbed by: Charlie
E-mail: Charlos2012@live.com

Tuning: Standard
Capo: 5th fret

Intro:

e|------------2-------2-------2-------2-------2-------2-------2-------2------|
B|----------0-------0-------0-------0-------0-------0-------0-------0--------|
G|--------4-------4-------4-------4-------4-------4-------4-------4----------|
D|------2-------2-------2-------2-------2-------2-------2-------2------------|
A|---------------------------------------------------------------------------|
E|---------------------------------------------------------------------------|

e|------------4-------4-------4-------4-------4-------4-------4-------4------|
B|----------0-------0-------0-------0-------0-------0-------0-------0--------|
G|--------4-------4-------4-------4-------4-------4-------4-------4----------|
D|---------------------------------------------------------------------------|
A|------0-------0-------0-------0-------0-------0-------0-------0------------|
E|---------------------------------------------------------------------------|

                                      ×4

Verse:

e|------------2-------2-------2-------2-------2-------2-------2-------2------|
B|----------0-------0-------0-------0-------0-------0-------0-------0--------|
G|--------4-------4-------4-------4-------4-------4-------4-------4----------|
D|------2-------2-------2-------2-------2-------2-------2-------2------------|
A|---------------------------------------------------------------------------|
E|---------------------------------------------------------------------------|

e|------------2-------2-------2-------2-------2-------2-------2-------2------|
B|----------0-------0-------0-------0-------0-------0-------0-------0--------|
G|--------4-------4-------4-------4-------4-------4-------4-------4----------|
D|------2-------2-------2-------2-------2-------2-------2-------2------------|
A|---------------------------------------------------------------------------|
E|---------------------------------------------------------------------------|

e|------------4-------4-------4-------4-------4-------4-------4-------4------|
B|----------0-------0-------0-------0-------0-------0-------0-------0--------|
G|--------4-------4-------4-------4-------4-------4-------4-------4----------|
D|---------------------------------------------------------------------------|
A|------0-------0-------0-------0-------0-------0-------0-------0------------|
E|---------------------------------------------------------------------------|

e|------------4-------4-------4-------4-------4-------4-------4-------4------|
B|----------0-------0-------0-------0-------0-------0-------0-------0--------|
G|--------4-------4-------4-------4-------4-------4-------4-------4----------|
D|---------------------------------------------------------------------------|
A|------0-------0-------0-------0-------0-------0-------0-------0------------|
E|---------------------------------------------------------------------------|


Добавлено: 27.12.2015
Другие материалы по этой песне:
  • Аккорды и текст

Страница создана 27.12.2015
http://primanota.ru/favela/gong-chords.htm
Привет, Гость.
Предлагаем пройти революционный курс по гитаре.
Подарок от PrimaNota.Ru, забирай!