PrimaNota.ru - самый крупный в мире бесплатный архив песенных текстов, аккордов, табулатур и нот


Faux Tales - Atlas - таба, видео

Регистрация Запомнить меня
Войти через:  Facebook Google Twitter Vk Yandex Mail.ru

Faux Tales - Atlas - таба, видео

Печатать
Просмотров: 108
Уроки эстрадного вокала в Санкт-Петербурге
-------------------------------------------------------------------------------
                                Faux Tales - Atlas
-------------------------------------------------------------------------------
Tabbed by: Stefan Premovic

Tuning: Standard

Awesome melodic dubstep, acoustic version. I arranged tab in this way to save space, 
because guitar 1 uses base strings, and guitar 2 high strings, so both guitars can fit 
together. Also, melody part is originally one octave higher, so play it that way if 
you want. C# on A string is played originally in 2 otaves, depending on the part, but 
it's easier this way, because of the tuning(it would be open C# in that way). 
If you don't understand any part, leave the question in the comment. Enjoy!

Artist: http://www.fauxtales.com/
Song:   https://www.youtube.com/watch?v=PWeOfXMFQTQ



Intro:
                 *
e|-----------------|
B|---------------5-| G2
G|-----------------| 
 |\/\/\/\/\/\/\/\/\|
D|---2---2---2---2-|
A|-4---4---4---4---| G1, x6(just G1)
E|-----------------|
 (*) - G2 starts in the end of 6th repeat. Note how the melody begins one 8th
       note before, and ends one 8th note after the end of the verse. Same 
       applies for the chorus too.


Instrumental verse:

e|-7---------------|---------5-------|-4---------------|---------5-------|
B|-----------------|-------5-------5-|-----------------|-------5-------5-| G2
G|-----------------|-----------------|-----------------|-----------------|
 |\/\/\/\/\/\/\/\/\/\/\/\/\/\/\/\/\/\/\/\/\/\/\/\/\/\/\/\/\/\/\/\/\/\/\/\|
D|---2---2---2---2-|---2---2---2---2-|---2---2---2---2-|---2---2---2---2-|
A|-4---4---4---4---|-4---4---2---2---|-----------------|-----------------| G1
E|-----------------|-----------------|-2---2---2---2---|-2---2---4---4---|\
                                                                           x2
e|-4---------------|---------5-------|-4---------------|-----------------|/
B|-----------------|-------5-------5-|-----------------|---------------5-| G2
G|-----------------|-----------------|-----------------|-----------------|
 |\/\/\/\/\/\/\/\/\/\/\/\/\/\/\/\/\/\/\/\/\/\/\/\/\/\/\/\/\/\/\/\/\/\/\/\|
D|---2---2---2---2-|---2---2---2---2-|---2---2---2---2-|---2---2---2---2-|
A|-0---0---0---0---|-0---0-----------|-4---4---4---4---|-4---4---4---4---| G1
E|-----------------|---------2---2---|-----------------|-----------------|


e|-9---------------|---------11------|-5---------------|---------4-------|
B|-----------------|---------------5-|-----------------|-------5-------5-| G2
G|-----------------|-------9---------|-----------------|-----------------|
 |\/\/\/\/\/\/\/\/\/\/\/\/\/\/\/\/\/\/\/\/\/\/\/\/\/\/\/\/\/\/\/\/\/\/\/\|
D|---2---2---2---2-|---2---2---2---2-|---2---2---2---2-|---2---2---2---2-|
A|-0---0---0---0---|-0---0---2---2---|-----------------|-----------------| G1
E|-----------------|-----------------|-2---2---2---2---|-2---2---0---0---|\
                                                                           x2
                                                                          /*
e|-7---------------|---------5-------|-4---------------|-----------------|-7-|
B|-----------------|-------5-------5-|-----------------|---------------5-|---| G2
G|-----------------|-----------------|-----------------|-----------------|---|
 |\/\/\/\/\/\/\/\/\/\/\/\/\/\/\/\/\/\/\/\/\/\/\/\/\/\/\/\/\/\/\/\/\/\/\/\|\/\|
D|---2---2---2---2-|---2---2---2---2-|---2---2---2---2-|---2---2---2---2-|---|
A|-0---0---0---0---|-0---0-----------|-4---4---4---4---|-4---4---4---4---|---| G1
E|-----------------|---------2---2---|-----------------|-----------------|---|
 (*) - play in the end of 2nd repeat


Pre-Chorus:

   C#m (slowly fade in)
e|-x---------------|
B|-5---------------| 
G|-6---------------| G1, x8
D|-6---------------|
A|-4---------------| 
E|-----------------|


Instrumental chorus (strum away! ; G2 plays the same melody as in the verse):

   C#m                       B         F#m                       G#m
e|-4---------------|---------2-------|-2---------------|---------4-------|
B|-5---------------|---------4-------|-2---------------|---------4-------|
G|-6---------------|---------4-------|-2---------------|---------4-------| G1
D|-6---------------|---------4-------|-4---------------|---------6-------|
A|-4---------------|---------2-------|-4---------------|---------6-------|
E|-----------------|-----------------|-2---------------|---------4-------|\
   A                         F#m       C#m                                 x2
e|-0---------------|---------2-------|-4---------------|-----------------|/
B|-2---------------|---------2-------|-5---------------|-----------------|
G|-2---------------|---------2-------|-6---------------|-----------------| G1
D|-2---------------|---------4-------|-6---------------|-----------------|
A|-0---------------|---------4-------|-4---------------|-----------------|
E|-----------------|---------2-------|-----------------|-----------------|

   A                         B         F#m                       E
e|-0---------------|---------2-------|-2---------------|---------0-------|
B|-2---------------|---------4-------|-2---------------|---------0-------|
G|-2---------------|---------4-------|-2---------------|---------1-------| G1
D|-2---------------|---------4-------|-4---------------|---------2-------|
A|-0---------------|---------2-------|-4---------------|---------2-------|
E|-----------------|-----------------|-2---------------|---------0-------|\
   A                         F#m       C#m                                 x2
e|-0---------------|---------2-------|-4---------------|-----------------|/
B|-2---------------|---------2-------|-5---------------|-----------------|
G|-2---------------|---------2-------|-6---------------|-----------------| G1
D|-2---------------|---------4-------|-6---------------|-----------------|
A|-0---------------|---------4-------|-4---------------|-----------------|
E|-----------------|---------2-------|-----------------|-----------------|



e|-7---------------|-----------------|-----------------|-----------------|
B|-----------------|-----------------|-----------------|---------------5-| G2
G|-----------------|-----------------|-----------------|-----------------|
 |\/\/\/\/\/\/\/\/\/\/\/\/\/\/\/\/\/\/\/\/\/\/\/\/\/\/\/\/\/\/\/\/\/\/\/\|
D|---------------2-|---2---2---2---2-|---2---2---2---2-|---2---2---2---2-|
A|-------------4---|-4---4---4---4---|-4---4---4---4---|-4---4---4---4---| G1
E|-----------------|-----------------|-----------------|-----------------|


Instrumental verse

Pre-Chorus

Instrumental chorus
Добавлено: 13.12.2015
Другие материалы по этой песне:
  • Аккорды и текст

Страница создана 13.12.2015
http://primanota.ru/faux-tales/atlas-chords.htm
Привет, Гость.
Предлагаем пройти революционный курс по гитаре.
Подарок от PrimaNota.Ru, забирай!