PrimaNota.ru - самый крупный в мире бесплатный архив песенных текстов, аккордов, табулатур и нот


Fauve - Tallulah - таба, видео

Регистрация Запомнить меня
Войти через:  Facebook Google Twitter Vk Yandex Mail.ru

Fauve - Tallulah - таба, видео

Печатать
Просмотров: 66
Уроки эстрадного вокала в Санкт-Петербурге
-------------------------------------------------------------------------------
                             TALLULAH - FAUVE
-------------------------------------------------------------------------------
Tabbed by:hugobeve
E-mail:hugo.beve@gmail.com

Tuning: Standard

This tab is only for the main guitar, I'll try to look at the second guitar later.
I did this only by ear so there must be some mistakes, but I think it sounds right.

From 0:00 to 0:40:
e|---------------------------------------------------------------------------|
B|-----------------------------------6---------------------------------------|
G|----7-7--5-3-3--2-2--5-3-3-----7-7-7-5-3-3--2-2-3-2-2----------------------| 
D|----8-8--7-5-5--3-3--7-5-5-----8-8---7-5-5--3-3-3-3-3----------------------|
A|---------------------------------------------------------------------------|
E|---------------------------------------------------------------------------|

From 0:40 to 0:57:
e|---------------------------------------------------------------------------|
B|---------------------------------------------------------------------------|
G|-----7-----5-----3------2-----3-------7/10-5--3----2-3---2-----------------| 
D|--7/8---6/7---4/5----5\3---3/5--5----8------5---5\3----3-------------------|
A|---------------------------------------------------------------------------|
E|---------------------------------------------------------------------------|

From 0:57 to 1:04
e|---------------------------------------------------------------------------|
B|---------------------------------------------------------------------------|
G|---------------------------------------------------------------------------| 
D|---8-8-8-8-8-8-8-8-(repeat 8 multiple times)-------------------------------| 
A|---------------------------------------------------------------------------|
E|---------------------------------------------------------------------------|

From 1:04 to 1:20:
e|---------------------------------------------------------------------------|
B|--------------------3-----4------------------------------------------------|
G|------3------5------------------3-----2------3-----------------------------| 
D|----5----5\3----5\3---5\3---5\3---5\3----5\3----5\3--7---------------------| 
A|---------------------------------------------------------------------------|
E|---------------------------------------------------------------------------|

e|---------------------------------------------------------------------------|
B|--------------------3-----4------------------------------------------------|
G|------3------5------------------3-----2------3-3-3-------------------------| 
D|----5----5\3----5\3---5\3---5\3---5\3----5\3--------5----------------------| 
A|---------------------------------------------------------------------------|
E|---------------------------------------------------------------------------|

From 1:20 to 1:36
e|---------------------------------------------------------------------------|
B|---------------------------------------------------------------------------|
G|-----7-----5-----3------2-----3-------7/10-5--3----2-3---2-----------------| 
D|--7/8---6/7---4/5----5\3---3/5--5----8------5---5\3----3-------------------|
A|---------------------------------------------------------------------------|
E|---------------------------------------------------------------------------|

From 1:36 to 1:52
e|---------------------------------------------------------------------------|
B|-----------------------------------6---------------------------------------|
G|----7-7--5-3-3--2-2--5-3-3-----7-7-7-5-3-3--2-2-3-2-2----------------------| 
D|----8-8--7-5-5--3-3--7-5-5-----8-8---7-5-5--3-3-3-3-3----------------------|
A|---------------------------------------------------------------------------|
E|---------------------------------------------------------------------------|

From 1:52 to 2:00
e|---------------------------------------------------------------------------|
B|---------------------------------------------------------------------------|
G|---------------------------------------------------------------------------| 
D|---8-8-8-8-8-8-8-8-(repeat 8 multiple times)-------------------------------| 
A|---------------------------------------------------------------------------|
E|---------------------------------------------------------------------------|

From 2:00 to 2:16
e|---------------------------------------------------------------------------|
B|--------------------3-----4------------------------------------------------|
G|------3------5------------------3-----2------3-----------------------------| 
D|----5----5\3----5\3---5\3---5\3---5\3----5\3----5\3--7---------------------| 
A|---------------------------------------------------------------------------|
E|---------------------------------------------------------------------------|

e|---------------------------------------------------------------------------|
B|--------------------3-----4------------------------------------------------|
G|------3------5------------------3-----2------3-3-3-------------------------| 
D|----5----5\3----5\3---5\3---5\3---5\3----5\3--------5----------------------| 
A|---------------------------------------------------------------------------|
E|---------------------------------------------------------------------------|

From 2:16 to 2:40
e|---------------------------------------------------------------------------|
B|-----------------------------------6---------------------------------------|
G|----7-7--5-3-3--2-2--5-3-3-----7-7-7-5-3-3--2-2-3-2-2----------------------| 
D|----8-8--7-5-5--3-3--7-5-5-----8-8---7-5-5--3-3-3-3-3----------------------|
A|---------------------------------------------------------------------------|
E|---------------------------------------------------------------------------|

From 2:40 to 2:48
e|---------------------------------------------------------------------------|
B|---------------------------------------------------------------------------|
G|---------------------------------------------------------------------------| 
D|---8-8-8-8-8-8-8-8-(repeat 8 multiple times)-------------------------------| 
A|---------------------------------------------------------------------------|
E|---------------------------------------------------------------------------|

From 2:48 until the end:
e|---------------------------------------------------------------------------|
B|--------------------3-----4------------------------------------------------|
G|------3------5------------------3-----2------3-----------------------------| 
D|----5----5\3----5\3---5\3---5\3---5\3----5\3----5\3--7---------------------| 
A|---------------------------------------------------------------------------|
E|---------------------------------------------------------------------------|

e|---------------------------------------------------------------------------|
B|--------------------3-----4------------------------------------------------|
G|------3------5------------------3-----2------3-3-3-------------------------| 
D|----5----5\3----5\3---5\3---5\3---5\3----5\3--------5----------------------| 
A|---------------------------------------------------------------------------|
E|---------------------------------------------------------------------------|
Добавлено: 30.12.2015
Вам также может быть интересно:
Другие материалы по этой песне:
  • Аккорды и текст

Страница создана 30.12.2015
http://primanota.ru/fauve/tallulah-chords.htm
Привет, Гость.
Предлагаем пройти революционный курс по гитаре.
Подарок от PrimaNota.Ru, забирай!