PrimaNota.ru - самый крупный в мире бесплатный архив песенных текстов, аккордов, табулатур и нот


Faust - On The Way To Abamae - таба, видео

Регистрация Запомнить меня
Войти через:  Facebook Google Twitter Vk Yandex Mail.ru

Faust - On The Way To Abamae - таба, видео

Печатать
Просмотров: 105
-------------------------------------------------------------------------------
                             On The Way To Abamae - Faust
-------------------------------------------------------------------------------
Tabbed by: Zigzag Wanderer

Tuning: Standard

Hey dudes, I tabbed this song out the way I play it so it may not be 100% accurate.
But I think it sounds quite swell.

Enjoy.

 0:10
       (~)                      (~)    (~)
e|-----12-----10\7--8-7-5----7-8-8------------------------------5-4----------------|
B|-------------------------------------5-6----8-8/10---6--4--5------5--------------|
G|---------------------------------------------------------------------------------|
D|---------------------------------------0-------------------2--------6-4----------|
A|----------------------0---------------------------------2---------------7--------|
E|-----0------------------------------------------------------------------0--------|
  
 0:24                                                            (~)
e|---------------------------------------------------------------12----------------|
B|---------------------------------------------------------------------------------|
G|-----------6-----------8--9----------------6-----------8--9----------------------|
D|--------------7---------------9-7-6-7-9------ 7----------------------------------|
A|---5-4----------9-7-6-----7-------7-9-11--------9-7-6-----7----------------------|
E|-------7---5--------0--7-------------------5--------0--7-----0-------------------|

 0:35    
e|----------------------------------2--------2------4------------------------------|
B|-------6--5-------5------7------2---2----4---4------5--------5--------7----------|
G|------7----7----6------7---7--3--------4--------6-----6----6---6--------8--------|
D|-----7--------7------------------------------------------7--------7/9-----9------|
A|--5------------------5-----------------2--------4--------------------------------|
E|--------------5---------------2--------------------------5--------5/7------------|
    
 0:44
e|-------------------------5-------------------------------------------------------|
B|-------3---------5------7--7-----9-----------------------------------------------|
G|-----4---------6-------7-----7---9-----------------------------------------------|
D|---5------5/7---------7----------9-----------------------------------------------|
A|--------------------5------------7-----------------------------------------------|
E|---3------3/5--------------------------------------------------------------------|

0:50
Repeat.


1:30-2:45
He kind of just messes around E barred and then moves down to A minor before finishing with:

e|--2----4---|
B|-----------|
G|-----------|
D|--0----2---|
A|-----------|
E|-----------|

Any questions or possible contributions are welcome in the comments down beloooowww.

************************************

| /   slide up
| \   slide down
| h   hammer-on
| p   pull-off
| ~   vibrato
| +   harmonic
| x   Mute note
| b   Bend
| pb  Pre-bend
| br  Bend release
| pbr Pre-bend release
| brb Bend release bend

************************************
Добавлено: 14.09.2015
Другие материалы по этой песне:
  • Аккорды и текст

Страница создана 14.09.2015
http://primanota.ru/faust/on-way-to-abamae-chords.htm
Привет, Гость.
Предлагаем пройти революционный курс по гитаре.
Подарок от PrimaNota.Ru, забирай!