PrimaNota.ru - самый крупный в мире бесплатный архив песенных текстов, аккордов, табулатур и нот


Faunts - M4 Part 2 - бас-таба, видео

Регистрация Запомнить меня
Войти через:  Facebook Google Twitter Vk Yandex Mail.ru

Faunts - M4 Part 2 - бас-таба, видео

Печатать
Просмотров: 116
-------------------------------------------------------------------------------
                             M4, Pt. II - Faunts
-------------------------------------------------------------------------------

I love MASS EFFECT and I love this song, so since there's a proper
guitar tab, I decided to figure out the bass tab for anyone interested.

Key:

/ - Slide up
\ - Slide down
X - Play previous note (to try to avoid higher-register fret confusion)


Bass comes in at about (1:04)


G|--------|--------|--------|--------|
D|--------|--------|--------|--------|
A|--------|--------|--------|--------|
E|---7----|--------|---7----|--------|

"Fire the fields...":

G|--------|--------------|--------|----------------|
D|--------|--------------|--------|----------------|
A|--------|---7---5--/9--|--------|---7---5---4----|
E|---7----|--------------|---7----|-------------5--|

G|--------|--------------|--------|------------------|-------------------|
D|--------|--------------|--------|------------------|-------------------|
A|--------|---7---5--/9--|--------|---7-----5---4----|--------5-------7--|
E|---7----|--------------|---7----|---------------5--|---3-------5-------|

G|--------|--------------|--------|----------------|
D|--------|--------------|--------|----------------|
A|--------|---7---5--/9--|--------|---7---5---4----|
E|---7----|--------------|---7----|-------------5--|

G|--------|--------------|--------|------------------|-------------------|
D|--------|--------------|--------|------------------|-------------------|
A|--------|---7---5--/9--|--------|---7-----5---4----|--------5-------7--|
E|---7----|--------------|---7----|---------------5--|---3-------5-------|

"I need you to recover...":

G|--------|--------|--------|----------------|
D|--------|--------|--------|----------------|
A|--------|--------|--------|---7---5---4----|
E|---7----|--------|---7----|-------------5--|

(Break)

G|--------|--------|--------|--------|
D|--------|--------|--------|--------|
A|--------|--------|--------|--------|
E|---7----|--------|--------|--------|

"I have wondered about you...":

G|-------------|-------------|-------------|-------------|
D|-------------|-------------|-------------|-------------|
A|--7-77777-7--|--7-77777-7--|--7-77777-7--|--7-77777-7--|
E|-------------|-------------|-------------|-------------|

G|-------------|-------------|-------------|-------------|
D|-------------|-------------|-------------|-------------|
A|--7-77777-7--|--7-77777-7--|--7-77777-7--|--7-77777-7--|
E|-------------|-------------|-------------|-------------|

G|-------------------|-------------------|-------------------|-------------------|
D|-------------------|-------------------|-------------------|-------------------|
A|--7-77777-7-77777--|--7-77777-7-77777--|--7-77777-7-77777--|--7-77777-7-77777--|
E|-------------------|-------------------|-------------------|-------------------|

G|-------------------|-------------------|-------------------|-------------------|
D|-------------------|-------------------|-------------------|-------------------|
A|--5-55555-5-55555--|--5-55555-5-55555--|-------------------|-------------------|
E|-------------------|-------------------|--5-55555-5-55555--|--5-55555-5-55555--|

G|-------------------|-------------------|-------------------|-------------------|
D|-------------------|-------------------|-------------------|-------------------|
A|--7-77777-7-77777--|--7-77777-7-77777--|--5-55555-5-55555--|--5-55555-5-55555--|
E|-------------------|-------------------|-------------------|-------------------|

G|-------------------|-------------------|-------------------|---------------------|
D|-------------------|-------------------|-------------------|---------------------|
A|-------------------|-------------------|-------------------|---------------------|
E|--7-77777-7-77777--|--7-77777-7-77777--|--8-88888-8-88888--|--10-XXXXX-10-XXXXX--|

G|-----------------------------|-----------------------------|
D|-----------------------------|-----------------------------|
A|-----------------------------|-----------------------------|
E|---8---8/15\10--10/17-XXXXX--|---8---8/15\10--10/17-XXXXX--|

G|-----------------------------|-----------------------------|
D|-----------------------------|-----------------------------|
A|-----------------------------|-----------------------------|
E|---8---8/15\10--10/17-XXXXX--|---8---8/15\10--10/17-XXXXX--|


"And I need you to recover...":

G|--------|--------------|--------|----------------|
D|--------|--------------|--------|----------------|
A|--------|-------5--/9--|--------|-------5---4----|
E|---7----|---0----------|---7----|---0---------5--|

G|---------------|---------------|---------------|---------------|
D|---------------|---------------|---------------|---------------|
A|--------5------|--------5--/7--|--------5------|--------5-/-7--|
E|---3--------5--|---3-----------|---3--------5--|---3-----------|

G|---------------|---------------|---------------|---------------|
D|---------------|---------------|---------------|---------------|
A|--------5------|--------5--/7--|--------5------|--------5-/-7--|
E|---3--------5--|---3-----------|---3--------5--|---3-----------|

Outro:

G|--------|--------|----------|--------|--------|----------|--------|--------|
D|--------|--------|----------|--------|--------|----------|--------|--------|
A|--------|--------|----------|--------|--------|----------|--------|--------|
E|---0----|--------|---0---5--|---7----|---3----|---0---5--|---7----|---3----|

G|----------|--------|--------|----------|--------|--------|---------|--------|
D|----------|--------|--------|----------|--------|--------|---------|--------|
A|----------|--------|--------|----------|--------|--------|--5---3--|--------|
E|---0---5--|---7----|---3----|---0---5--|---7----|---3----|---------|---0----|

G|----------|--------------|--------|--------|
D|----------|--------------|--------|--------|
A|----------|-------5---3--|---0----|--------|
E|---5---7--|---3----------|--------|--------|

G|----------|----------|----------|----------|
D|----------|----------|----------|----------|
A|----------|----------|----------|----------|
E|---3---5--|---3---5--|---3---5--|---7---2--|

G|----------|----------|----------|----------|
D|----------|----------|----------|----------|
A|----------|----------|----------|----------|
E|---3---5--|---3---5--|---3---5--|---7---2--|

G|----------|----------|----------|----------|
D|----------|----------|----------|----------|
A|----------|----------|----------|----------|
E|---3---5--|---3---5--|---3---5--|---7---2--|

G|-------------------|-------------------|-------------------|----------|
D|-------------------|-------------------|-------------------|----------|
A|-------------------|-------------------|-------------------|----------|
E|---3---3/10\5--12--|---3---3/10\5--12--|---3---3/10\5--12--|---7---2--|

G|----------|----------|----------|----------|
D|----------|----------|----------|----------|
A|----------|----------|----------|----------|
E|---3---5--|---3---5--|---3---5--|---7---2--|

G|----------|----------|----------|----------|
D|----------|----------|----------|----------|
A|----------|----------|----------|----------|
E|---3---5--|---3---5--|---3---5--|---7---2--|

G|----------|----------|----------|----------|--------|
D|----------|----------|----------|----------|--------|
A|----------|----------|----------|----------|--------|
E|---3---5--|---3---5--|---3---5--|---7---2--|---0----|


Key:

/ - Slide up
\ - Slide down
X - Play previous note (to try to avoid higher-register fret confusion)

I tried my best to make the notation make sense, but playing along should 
help with any confusion.
It's as close as I can get by ear. Any corrections, questions, comments, etc. 
send to bambrown@comcast.net

Thanks, and enjoy, all of you MASS EFFECT fans!

===============================================================================
Добавлено: 13.08.2015
Другие материалы по этой песне:

Страница создана 03.06.2012
http://primanota.ru/faunts/m4-part-2-chords.htm
Привет, Гость.
Предлагаем пройти революционный курс по гитаре.
Подарок от PrimaNota.Ru, забирай!