PrimaNota.ru - самый крупный в мире бесплатный архив песенных текстов, аккордов, табулатур и нот


Faunts - Explain - таба, видео

Регистрация Запомнить меня
Войти через:  Facebook Google Twitter Vk Yandex Mail.ru

Faunts - Explain - таба, видео

Печатать
Просмотров: 168
Уроки эстрадного вокала в Санкт-Петербурге
http://www.faunts.com/

Faunts
Feel.Love.Thinking.Of
Explain




Intro:

Guitar:
E:-----------------------------------------------------------------|
B:-----------------------------------------------------------------|
G:---8-----8-----8-----8-----8-----8s6---6------11---8-------------|
D:-9---9-9---9-9---9-9---9-9---9-9-----9---9-13----9---------------|
A:-----------------------------------------------------------------|
E:-----------------------------------------------------------------|
                                                                      x4
guitar2:
E:-----------------------------------------------------------------|
B:-----------------------------------------------------------------|
G:-----------------------------------------------------------------|
D:-----------------------------------------------------------------|
A:--9h11-11-9-9-9--9h11-11-9-7-7-9h11-11-9-9-9-9h11-11-9-7-7-------|
E:-----------------------------------------------------------------|




Verse:
   F#             B                A       A         G#m             A
E:--------------------------------------I---------------------------------|
B:--------------------------------------I---------------------------------|
G:-11-11-11-11-\--8-8---8-8-8-8-\--6-6--I--6-6-6-6-\-4-4---4-4-4-4-/-6-6--|
D:-11-11-11-11-\--9-9---9-9-9-9-\--7-7--I--7-7-7-7-\-6-6---6-6-6-6-/-7-7--|x3
A:--------------------------------------I---------------------------------|
E:--------------------------------------I---------------------------------|

everything that I've done
everything that I've tried
has led me on this long road
until we all collide
but i was the one who cared
when you were the one who cried
so now that you're listening
do you want to leave with me     
tonight?
E:-----------------------------------------------------------------|
B:-----------------------------------------------------------------|
G:---8-----8-----8-----8-----8-----8s6---6------11---8-------------|
D:-9---9-9---9-9---9-9---9-9---9-9-----9---9-13----9---------------|x8
A:-----------------------------------------------------------------|
E:-----------------------------------------------------------------|
...with me tonight



   F#             B                A       A         G#m             A
E:--------------------------------------I---------------------------------|
B:--------------------------------------I---------------------------------|
G:-11-11-11-11-\--8-8---8-8-8-8-\--6-6--I--6-6-6-6-\-4-4---4-4-4-4-/-6-6--|
D:-11-11-11-11-\--9-9---9-9-9-9-\--7-7--I--7-7-7-7-\-6-6---6-6-6-6-/-7-7--|x3
A:--------------------------------------I---------------------------------|
E:--------------------------------------I---------------------------------|
i cant take it all in right now
but if you just give me time
explain to me as if a stranger
look at all the obvious dangers
no sense might be your guide
nothing you can do will save me,
all you can do is cry

E:-----------------------------------------------------------------|
B:-----------------------------------------------------------------|
G:----11-------11-----------11---------------9-----------13-11-----|
D:-13-----9-13----13---9-13----13-14-13-9-11---11---9h11------9----|
A:-----------------------------------------------------------------|x4
E:-----------------------------------------------------------------|



   F#             B                A       A         G#m             A
E:--------------------------------------I---------------------------------|
B:--------------------------------------I---------------------------------|
G:-11-11-11-11-\--8-8---8-8-8-8-\--6-6--I--6-6-6-6-\-4-4---4-4-4-4-/-6-6--|
D:-11-11-11-11-\--9-9---9-9-9-9-\--7-7--I--7-7-7-7-\-6-6---6-6-6-6-/-7-7--|x3
A:--------------------------------------I---------------------------------|
E:--------------------------------------I---------------------------------|

E:-----------------------------------------------------------------|
B:-----------------------------------------------------------------|
G:---8-----8-----8-----8-----8-----8s6---6------11---8-------------|
D:-9---9-9---9-9---9-9---9-9---9-9-----9---9-13----9---------------|(until end)
A:-----------------------------------------------------------------|(improvise!)
E:-----------------------------------------------------------------|(its not always the same)

anything that I've done
anything that I've tried
has led me on this long road
until we all collide,
well i was the one who cared
and you were the one who cried
so now that you're listening
do you wanna leave with me
tonight?

E:--------------------------------------I---------------------------------|
B:--------------------------------------I---------------------------------|
G:-11-11-11-11-\--8-8---8-8-8-8-\--6-6--I--6-6-6-6-\-4-4---4-4-4-4-/-6-6--|
D:-11-11-11-11-\--9-9---9-9-9-9-\--7-7--I--7-7-7-7-\-6-6---6-6-6-6-/-7-7--|x3
A:--------------------------------------I---------------------------------|
E:--------------------------------------I---------------------------------|


E:--------------------------------------I---------------------------------|
B:--------------------------------------I---------------------------------|
G:-11-11-11-11-\--8-8---8-8-8-8-\--6-6--I--6-6-6-6-\-4-4---4-4-4-4-/-6-6--|
D:-11-11-11-11-\--9-9---9-9-9-9-\--7-7--I--7-7-7-7-\-6-6---6-6-6-6-/-7-7--|x3
A:--------------------------------------I---------------------------------|
E:--------------------------------------I---------------------------------|

i think the past has come
i think the past has come back to haunt you
come back to haunt you
i think the past has come
i think the past has come back to haunt you
come back to haunt you
i think the world is cold
but i could keep you here right now until the sun's up
i think the world is cold
but i could keep you here right now until the sun comes up

E:--------------------------------------I---------------------------------|
B:--------------------------------------I---------------------------------|
G:-11-11-11-11-\--8-8---8-8-8-8-\--6-6--I--6-6-6-6-\-4-4---4-4-4-4-/-6-6--|
D:-11-11-11-11-\--9-9---9-9-9-9-\--7-7--I--7-7-7-7-\-6-6---6-6-6-6-/-7-7--|x3
A:--------------------------------------I---------------------------------|
E:--------------------------------------I---------------------------------|

E:---------------------------------------------------------------------|
B:---------------------------------------------------------------------|
G:---------------------------------------------------------------------|
D:---------------------------------------------------------------------|x...
A:---------------------------------------------------------------------|
E:-9h11-11-11-7-7--9h11-11-11-9-9-9h11-11-11-7-7-9h11-11-11-9-9--------|

until the sun comes up
until the sun comes up
until the sun comes up
until the sun comes up

E:------------------------------------------------------------I---------------|
B:------------------------------------------------------------I---------------|
G:------------------------------------------------------------I---------------|
D:-14-14-14-13-13-13-11-11-11-9-9-9--9-9-9-8-8-8-9-9-9-/11-13-I../11-/13-9----|x4
A:------------------------------------------------------------I---------------|
E:------------------------------------------------------------I---------------|

Ending:

E:---------------------------------------------------------------------|
B:---------------------------------------------------------------------|
G:---------------------------------------------------------------------|x2
D:---------------------------------------------------------------------|
A:---------------------------------------------------------------------|
E:-9h11-11-11-7-7--9h11-11-11-9-9-9h11-11-11-7-7-9h11-11-11-9-9--------|
  (same time)
E:-----------------------------------------------------------------|
B:-----------------------------------------------------------------|
G:-----------------------------------------------------------------|
D:-----------------------------------------------------------------|x16
A:-----------------------------------------------------------------|
E:-0-0-0--7-7-7--9-9-9--7-7-7--2-2-2--9-9-9--11-11-11--9-9-9-------|


E:-------------------------------------------------------I------------------|
B:-------------------------------------------------------I------------------|
G:-11-------11------------11----11-------------9-8-9-13--I...9-8------------|
D:----13-11----13---11h13----13----14-13-11--9-----------I-------11-9-9-----|x4
A:-------------------------------------------------------I------------------|
E:-------------------------------------------------------I------------------|
Добавлено: 13.05.2012
Другие материалы по этой песне:
  • Аккорды и текст

Страница создана 13.05.2012
http://primanota.ru/faunts/explain-chords.htm
Привет, Гость.
Предлагаем пройти революционный курс по гитаре.
Подарок от PrimaNota.Ru, забирай!