PrimaNota.ru - самый крупный в мире бесплатный архив песенных текстов, аккордов, табулатур и нот


Faun - Rosmarin - таба, видео

Регистрация Запомнить меня
Войти через:  Facebook Google Twitter Vk Yandex Mail.ru

Faun - Rosmarin - таба, видео

Печатать
Просмотров: 487
These are very simple tabs of the Faun song Rosmarin.
You can play the song with these notes.
Part B is only a suggestion to play the interludes.


A:

E---------------------------------------------------------------------------|
H---------------------------------------------------------------------------|
G--------------0----2----0----2-----------------------------0---------------|
D----0----3------------------------3----0----0----2----3---------2----3-----|
A---------------------------------------------------------------------------|
E---------------------------------------------------------------------------|

 ----------------------------------|
 ----------------------------------|
 ----------------------------------|
 --------0-------------------------|
 ----3-----------------------------|
 ----------------------------------|


B:

E--------------------5-------------5----------------------------------------|
H---------6----8-------------8---------6------------------5----6----8-------|
G----7---------------------------------------7--------7---------------------|
D---------------------------------------------------------------------------|
A---------------------------------------------------------------------------|
E---------------------------------------------------------------------------|

 -----------------------------|
 ----5----6-------------------|
 --------------5----7---------|
 -----------------------------|
 -----------------------------|
 -----------------------------|


2x A

A     Du sagst du stehst kurz vor dem Ziel
      Ich glaube der, der ich verfiel
      Du sprichst im Traum von einem Ort
      Den es nicht gibt, doch bist du dort.

2x A

A     Die Luft ist leicht, die Blätter weh'n
      Was du verlierst bleibt doch besteh'n
      Die Nacht beginnt, schon ist es spät
      Dein ferner Blick weist mir den Weg.

2x A

Ref. (2x) A
Es kommt der Tag, schon ist es spät
Dein Reich beginnt dort wo du stehst
Noch sehe ich dich von hier geh'n
Dort wo du gehst blüht Rosmarin.

4x B

1x A

A     Du sprichst im Traum, du sprichst kein Wort
      Ich folge dir, nimm mich mit fort
      Wein nicht, es ist mein erstes Ziel
      Ich folge der, der ich verfiel.

2x A

Ref. (2x) A

3x B
Добавлено: 07.04.2012
Другие материалы по этой песне:
  • Аккорды и текст

Страница создана 07.04.2012
http://primanota.ru/faun/rosmarin-chords.htm
Привет, Гость.
Предлагаем пройти революционный курс по гитаре.
Подарок от PrimaNota.Ru, забирай!