PrimaNota.ru - самый крупный в мире бесплатный архив песенных текстов, аккордов, табулатур и нот


Fattern - Birgitte - таба, видео

Регистрация Запомнить меня
Войти через:  Facebook Google Twitter Vk Yandex Mail.ru

Fattern - Birgitte - таба, видео

Печатать
Просмотров: 118
Author/Artist: Fattern
Title: Birgitte
Transcribed by: Harald Hveem
Email: ace_ventuora@hotmail.com

Fattern is a houmorus artist from Norway.
Wisit hees website at: http://fatternruler.cjb.net/
Or hees Urørt-profil here: http://www11.nrk.no/urort/user/?id=3971

-------------------------------------------------------------------------------
                             Fattern - Birgitte
-------------------------------------------------------------------------------


Chords used:
   C   Am   Em   G
|--0---0----0----3---|
|--1---1----0----0---|
|--0---2----0----0---|
|--2---2----2----0---|  
|--3---0----2----2---|
|-----------0----3---|





INTRO:
|-------0-------------0------------0------------3-----|
|-----1---1---------1---1------------0--------0---0---|
|-----------0-------------2------------0------------0-|
|---2-------------2--------------2--------------------|  x2
|-3-------------0--------------2------------2---------|
|----------------------------0------------3-----------|
                                                                              
PRE-VERSE:

C Am Em G
C Am Em G


VERSE:
    C                      Am
Jeg husker da jeg så deg for første gang
      E                      G
Jeg ble forelska og var happy dagen lang
    C                            Am
Jeg husker fortsatt dine øyne, som diamanter skinte de
  E                                G
Trist at vår stund sammen bare var bortkasta tid


(Just keep it going like that trough the rest of the song)


Første gang du og jeg var sammen
Var da vi begge matet ender ved andedammen
Jeg spurte hva du het, og du hvisket Birgitte
Og om du blir med meg hjem, skal du få se min fiolin

Du lærte meg å spille Et barn er født i Betlehem
På den nokså stygge fiolinen din
Da jag skulle gå ga du meg en klem
Veien hjem var relativt fin

Neste gang du og jeg møttes Birgitte
Hadde du så deilig og trang f-f-finlandshette
Du ville at vi sammen skulle rane banken
Og stikke av i en Cariolet stappfull i tanken

Det var da det gikk opp for meg; jeg måtte dumpe deg
Men nå når jeg ser meg tilbake så angrer jeg meg
Da jeg tenker på det vi hadde, så hvær søndag ofrer jeg en padde
foran et alter jeg har laget til ære for deg

Birgitte Birgitte
Birgitte Birgitte
Birgitte Birgitte
Birgitte Birgitte
Birgitte Birgitte
Birgitte Birgitte

   C         Am         E              G
Jeg fikk jo ikke en gang testet din, fiskestang
        C
Og den var lang
Nesten like lang som kuken min.
Oi, oi, shit.



If you have any corrections or comments, feel free to
mail me: ace_ventuora@hotmail.com

Have fun :)
Rate?
Добавлено: 20.07.2012
Другие материалы по этой песне:
  • Аккорды и текст

Страница создана 20.07.2012
http://primanota.ru/fattern/birgitte-chords.htm
Привет, Гость.
Предлагаем пройти революционный курс по гитаре.
Подарок от PrimaNota.Ru, забирай!