PrimaNota.ru - самый крупный в мире бесплатный архив песенных текстов, аккордов, табулатур и нот


Fatso Jetson - Jet Black Boogie - таба, видео

Регистрация Запомнить меня
Войти через:  Facebook Google Twitter Vk Yandex Mail.ru

Fatso Jetson - Jet Black Boogie - таба, видео

Печатать
Просмотров: 19
-------------------------------------------------------------------------------
                             JET BLACK BOOGIE - Fatso Jetson
-------------------------------------------------------------------------------
Tabbed by: tylersugarcarlo
E-mail: borntohula_00@yahoo.com

Tuning: Drop D

Main Riff
e|--------------------|     e|-------------------| 
B|--------------------|     B|-------------------|
G|--------------------|     G|-------------------|
D|---0---0---------0~-|     D|----0---0---0---0~-|
A|--------------------|     A|-------------------| 
D|-0---0-----0-2/3~---| 3x  D|-/5---5---3---3----| 1x

There's no love in this heart of mine
You can look but all you'll find
Deep dark hole jet black as coal
You can look that's all you'll find

Guitar Solo
(this is hard to decipher because of the heavy distortion and it being rather low in the mix)3+
e|-----------------------------------------------------------------------|
B|-----------------------------------------------------------------------|
G|-----------------------------------------------------------------------|
D|-------------------------------3(b)-------0-3-0-2(b)-----3-------------|
A|-------------3-5~~~--------3-5------5-3--------------3/5----------0----|
D|15\0~--0h3h5---------0h3h5--------------0------------------5p0--3---3~-|

e|-----------------------------------------------------------------------|
B|------------------------------------------------------------------3~~~-|
G|------------------------------------------------------------------5(b)-|
D|-----------3(b)~-----3-0-3-3/5v-5/3p0----------0h3p0-3h5-3---5(b)------|
A|---------3-----3~---------------------3~-------------------------------|
D|-0-0h3h5-----------0---------------------------------------------------|


There's no warmth in my embrace
Hallowed arms and heads in space
Just pretend this too shall pass
Jet black boogie could be my last

Chorus

e|--------------------------------------------------------------------|
B|--------------------------------------------------------------------|
G|--------------------------------------------------------------------|
D|--------------------------7\10-7v--------10\12-10v------------------|
A|--------10\12-10v------------------------------------------8\10-8v--|
D|-10\12-------------10\12-----------10\12------------10\12-----------|

Deep dark hole jet black as coal
This jet black should be my last
Deep dark hole jet black as coal
This jet black shall be my last

Cracks I see in that long drawn smile
Tell me you been out there a while
Long tall gristle man wringing down your neck
Put down the hammer, there's always gonna be regrets

Recall who you are
Unless it's better to forget
Sun gonna rise 'til it's good and ready to set
There's no love in this heart of mine
You can look but all you'll find

Deep dark hole jet black as coal
This jet black should be my last
Deep dark hole jet black as coal
This jet black shall be my last


d|-----------------|
a|-----------------|
G|-----------------|
D|---0---0---------|
A|-----------------|
D|-0---0-----0-/15-| 4x


************************************

| /   slide up
| \   slide down
| h   hammer-on
| p   pull-off
| ~   vibrato
| +   harmonic
| x   Mute note
| b   Bend
| pb  Pre-bend
| br  Bend release
| pbr Pre-bend release
| brb Bend release bend

************************************
Добавлено: 16.06.2016
Другие материалы по этой песне:
  • Аккорды и текст

Страница создана 16.06.2016
http://primanota.ru/fatso-jetson/jet-black-boogie-chords.htm
Привет, Гость.
Предлагаем пройти революционный курс по гитаре.
Подарок от PrimaNota.Ru, забирай!