PrimaNota.ru - самый крупный в мире бесплатный архив песенных текстов, аккордов, табулатур и нот


Fates Warning - The Sorceress - текст песни, таба, видео

Регистрация Запомнить меня
Войти через:  Facebook Google Twitter Vk Yandex Mail.ru

Fates Warning - The Sorceress - текст песни, таба, видео

Печатать
Просмотров: 97
-----------------------------------------------------------------------------------
                        FATES WARNING -the Sorceress from Awaken the Guardian 1986
-----------------------------------------------------------------------------------
Tabbed by:NihilView
E-mail:

Tuning:D STANDARD DGCFAd whole step down.   my attempt to figured and tab this great heavy-speed metal song
                                            some part are wrong but its basic structure for advanced work

                                                   

|----------------------------------------------------------------------------|   ACOUSTIC INTRO
|------------------------------------------------------------5---------------|
|-----------2------2------------------2--------2-------------4---------------I    Let Ring 0:00-0:40
|--------3-----3------3---------5---------5--------5---------2---------------I
|----5-------------------------------------------------------2---------------I     
I---------------------------0------------------------------------------------I


                                                                                        VERSE
|-------------------------------------------------------------------------------|
|-------------------------------------------------------------------------------|       0:40-0:57
|-------------------------------------------------------------------------------|
|--------------------9---8-10------5H7p5-----------------------------7--6---5---|
|----5H 777--5H7-----------8---------------8--7--5-----5h 777 5h7-----------3---|        
|--------------------------8------------------------------------------------3---|



|---------------------------------------------------------------------------|
|---------------------------------------------------------------------------|    PRE-CHORUS
|---------------------------------------------------------------------------|
|-----------------------------4--3------------------------2-----------------I      0:57-1:17
|-----------------------------2--1--1--11111-1-111--11----0-----------------I
|-0--000---0-000-0-000---0--------------------------------------------------I
 
 P.M.---------------------           P.M.-------------           



|---------------------------------------------------------------------------|   
|---------------------------------------------------------------------------|
|---------------------------------------------------------------------------|
|----8---------7--9----9---8----10-------------------------------------- ---I   
|----66 66666--5--7 ---9---8----8-------------------------------------------|
|----------------------7---6------------------------------------------------|




|------------------------------------------------------------------------------|   CHORUS
|------------------------------------------------------------------------------| 
|--4----4------4-------2-----------------4-------4------4----------------------|     
|--4----4------4--5----2---------2-2-2---4-------4------4---5---4-4--4---2-2---|  1:17-1:37
|--222222--22222--2----0-000000--3-3-3---2--222222--22222---7---5-5--5---3-3---|      
|------------------------------------------------------------------------------|



|---------------------------------------------------------------------------|REPEAT VERSE+PRECHORUS
|---------------------------------------------------------------------------|
|---------------------------------------------------------------------------|
|---------------------------------------------------------------------------|
|---------------------------------------------------------------------------|
|---------------------------------------------------------------------------|

|---------------------------------------------------------------------------|
|---------------------------------------------------------------------------| BRIDGE 1
|---------------------------------------------------------------------------|  2:34-2:46
|------------------------5---------------------3-------5--------------------|   
|------------------------3---------------------5-sl.---7--------------------|
|-0 0000 00 0000 00----------00 0000 0000 00--------------------------------|

P.M-----------------        P.M.-----------



|---------------------------------------------------------------------------| after mute bridge play 
|---------------------------------------------------------------------------| something this effort??
|---------------------------------------------------------------------------|
|---5----5-----4---4-----3---3-------------------3-2-3-------------3-2--3---| 
|---7----6-----6---5-----5---4-------------------5-3-5-------------5-3--5---|
|---------------------------------000 00000 000---------00 0000 00----------|

                                  P.M.--------           P.M.------


------------------------------------------------------------------------------| 
------------------------------------------------------------------------------|      BRIDGE 2
------------------------------------------------------------------------------|      3:20-3:35
-------4-----------3------------------------4---------------------------------|
----4----------3------------2----5--------4------3-----2----------------------|
-2---------1-------------0-------3-----2---------1--0-----0---3---------------|


                                                                                           HEAVY RIFF
-----------------------------------------------------------------------------------------|
-----------------------------------------------------------------------------------------|   3:35-3:53
-----------------------------------------------------------------------------------------|
------------------------------------------------------------   -4--------3---------------|
-------------------------0-----------------------------5----  4-------3---------2-----5--|
---0h222222--0-2--0-2-------20-2---0h222222--02--0--2--3----2-------1--------0--------3--|

P.M.-----------------           P.M.-----------





-------------------------------------------------------------|
-------------------------------------------------------------|    SOLO BACK: 4:16-------
-------------------------------------------------------------|
-------------------------------------------------------------|
-------------------------------------------------------------|  
--2220 222 0222--0H20--6--22-20-2220- 222-02--2h3------------|

 P.M.---------------------------------------------  lightly palm mute


AFTER SOLO REPEAT SONG STRUCTURE RIFFS BRIDGE CHORUS etc.




P.M palm muting

| /   slide up
| \   slide down
| h   hammer-on
| p   pull-off
| ~   vibrato
| +   harmonic
| x   Mute note
| b   Bend
| pb  Pre-bend
| br  Bend release
| pbr Pre-bend release
| brb Bend release bend

************************************
Добавлено: 03.07.2015
Другие материалы по этой песне:
  • Аккорды и текст

Страница создана 02.05.2012
http://primanota.ru/fates-warning/the-sorceress-chords.htm
Привет, Гость.
Предлагаем пройти революционный курс по гитаре.
Подарок от PrimaNota.Ru, забирай!