PrimaNota.ru - самый крупный в мире бесплатный архив песенных текстов, аккордов, табулатур и нот


Fates Warning - A Pleasant Shade Of Gray Part Vi - бас-таба, видео

Регистрация Запомнить меня
Войти через:  Facebook Google Twitter Vk Yandex Mail.ru

Fates Warning - A Pleasant Shade Of Gray Part Vi - бас-таба, видео

Печатать
Просмотров: 60
A Pleasant Shade Of Gray, Part VI
by Fates Warning

Intro
 5/4
  Wx16
|---------||
|---------||
|---------||
|---------||


Pre-Verse
                                                                4x
||-------------------------------|-------------------------------||
||o-----0-2--0h2-----0-2-(2)-----|-----0-2--0h2-----0-2-(2)-----o||
||o------------------------------|------------------------------o||
||--0-3----------0-3---------3b4-|-0-3----------0-3---------3b4--||

                                                                4x
||-------------------------------|-------------------------------||
||o-----0-2--0h2-----0-2-(2)-----|-----0-2--0h2-----0-2-(2)-----o||
||o------------------------------|------------------------------o||
||--0-3----------0-3---------3b4-|-0-3----------0-3---------3b4--||


Verse

||----------------------------|
||o---------------------------|
||o---------------------------|
||--0-----0-0---0-0---0-0-0---|


                                                  3x
|-------------------------|------------------------||
|-------------------------|-----------------------o||
|-------------------------|-----------------------o||
|-0-----0-0---0---0-0---0-|-0---0-0-0---0---0-0----||


Interlude
                                                                8x
||-------------------------------|-------------------------------||
||o-----0-2--0h2-----0-2-(2)-----|-----0-2--0h2-----0-2-(2)-----o||
||o------------------------------|------------------------------o||
||--0-3----------0-3---------3b4-|-0-3----------0-3---------3b4--||


Chorus
 4/4
|--------------|-----------|------------|--------------|
|-----------0--|-2---------|---------0--|-2------------|
|-3----(3)-----|-----------|-3----3-----|------------2-|
|--------------|------0----|------------|------0-------|


|------------|------------------|----------------|-----------||
|---------0--|-2----------------|------4-5-2--0--|-2---------||
|-3----3-----|------------------|-3--------------|-----------||
|------------|------0-0---0-0---|----------------|------0----||


Guitar Solo

||-----------|--------------|----------|--------------||
||o-1--------|---------1h3--|-1--------|---------1h3-o||
||o----------|--------------|----------|-------------o||
||-----------|-3------------|----------|-3------------||


Out-Chorus

|--------------|-----------|------------|-------------|
|-----------0--|-2---------|---------0--|-2-----------|
|-3----(3)-----|-----------|-3----3-----|-----------2-|
|--------------|------0----|------------|------0------|


|------------|------------------|----------------|------*|
|---------0--|-2----------------|------4-5-2--0--|-2----*|
|-3----3-----|------------------|-3--------------|------*|
|------------|------0-0---0-0---|----------------|------*|
Добавлено: 09.12.2015
Другие материалы по этой песне:
  • Аккорды и текст

Страница создана 09.12.2015
http://primanota.ru/fates-warning/pleasant-shade-of-gray-part-vi-chords.htm
Привет, Гость.
Предлагаем пройти революционный курс по гитаре.
Подарок от PrimaNota.Ru, забирай!