PrimaNota.ru - самый крупный в мире бесплатный архив песенных текстов, аккордов, табулатур и нот


Fates Unfortunate - End Of The World - таба, видео

Регистрация Запомнить меня
Войти через:  Facebook Google Twitter Vk Yandex Mail.ru

Fates Unfortunate - End Of The World - таба, видео

Печатать
Просмотров: 57
Уроки эстрадного вокала в Санкт-Петербурге
-------------------------------------------------------------------------------
                             END OF THE WORLD - Fates Unfortunate
-------------------------------------------------------------------------------

Tabbed by: bob
E-mail: judgegoalie13@msn.com

Tuning: Drop B

Intro:
e|---------------------------------------------------------------------------|
C# |-------------------------------------------------------------------------|
G# |-------------------------------------------------------------------------|
E  |-------------------------------------------------------------------------|
B  |--2-2-2-2-2-2-2-2-2222-2-2-2-2-2-2-2-2-2222------------------------------|
F# |--2-2-2-2-2-2-2-2-2222-2-2-2-2-2-2-2-2-2222------------------------------|
B  |--2-2-2-2-2-2-2-2-2222-2-2-2-2-2-2-2-2-2222------------------------------|

e|---------------------------------------------------------------------------|
C# |-------------------------------------------------------------------------|
G# |-------------------------------------------------------------------------|
E  |-------------------------------------------------------------------------|
B  |--5-5-5-5-5-5-5-5-5555-5-5-5-5-5-5-5-5-5555------------------------------|
F# |--5-5-5-5-5-5-5-5-5555-5-5-5-5-5-5-5-5-5555------------------------------|
B  |--5-5-5-5-5-5-5-5-5555-5-5-5-5-5-5-5-5-5555------------------------------|

Verse:
C# |-------------------------------------------------------------------------|
G# | ------------------------------------------------------------------------|
E  |-------------------------------------------------------------------------|
B  |-5-5-5-5-5-5-5-5-5555--2-2-2-2-2-2-2-2-2222--55555555--77777777----------|  
F# |-7-7-7-7-7-7-7-7-7777--3-3-3-3-3-3-3-3-3333--55555555--55555555----------|
B  |-x-x-x-x-x-x-x-x-xxxx--x-x-x-x-x-x-x-x-xxxx--55555555--xxxxxxxx----------|

Chorus:
e|---------------------------------------------------------------------------|
C# |-------------------------------------------------------------------------|
G# |-------------------------------------------------------------------------|
E  |-------------------------------------------------------------------------|
B  |--5-5-5-5-5-5-5-5-5555--2-2-2-2-2-2-2-2-2222--55555555--44444444---------|  
F# |--7-7-7-7-7-7-7-7-7777--3-3-3-3-3-3-3-3-3333--55555555--44444444---------|
B  |--x-x-x-x-x-x-x-x-xxxx--x-x-x-x-x-x-x-x-xxxx--55555555--44444444---------|

Verse2: repeat

Chorus2:
C# |-------------------------------------------------------------------------|
G# | ------------------------------------------------------------------------|
E  |-------------------------------------------------------------------------|
B  |22-22-22-22-2222-22-22-22-22-2222-55-55-55-55-5555--7-7-7-7-7-7-7-7-7777-|  
F# |22-22-22-22-2222-22-22-22-22-2222 55-55-55-55-5555--5-5-5-5-5-5-5-5-5555-|
B  |22-22-22-22-2222-22-22-22-22-2222 55-55-55-55-5555--x-x-x-x-x-x-x-x-xxxx-|
Добавлено: 31.08.2013
Другие материалы по этой песне:
  • Аккорды и текст

Страница создана 31.08.2013
http://primanota.ru/fates-unfortunate/end-of-the-world-chords.htm
Привет, Гость.
Предлагаем пройти революционный курс по гитаре.
Подарок от PrimaNota.Ru, забирай!