PrimaNota.ru - самый крупный в мире бесплатный архив песенных текстов, аккордов, табулатур и нот


Fat White Family - Wild American Prairie - таба, видео

Регистрация Запомнить меня
Войти через:  Facebook Google Twitter Vk Yandex Mail.ru

Fat White Family - Wild American Prairie - таба, видео

Печатать
Просмотров: 31
Авторы: Fat White Family

Fat White Family - Wild American Prairie

Standard tuning.

Chorus
e--------------------------------------------------------------------------------|
B--------------------------------------------------------------------------------|
G--------------------------------------------------------------------------------|
D--2---2---2---2---2-----2---2----2---2---2-----5---5----5---5---5---------------|
A----1-------1---1---------1--------1---1---------4--------4---4-----------------|
E-2------2-------------2-------2--------------5--------5-------------------------|

e----------------------|
B----------------------|
G----------------------|        x3
D--2---2---2---2---2---|
A----1-------1---1-----|
E-2------2-------------|

There sometimes is some variation in the picking of the notes, listen closely.
A variation which is worth noting is this one:

e--------------------------------------------------------------------------------|
B--------------------------------------------------------------------------------|
G--------------------------------------------------------------------------------|
D----5---5----5-777-5------------------------------------------------------------|
A------4-------------------------------------------------------------------------|
E--5-------5---------------------------------------------------------------------|

Verse

- F# -

e--x--| The guitar is not really involved in the verse, but you can strum along a
B--x--| bit while muted.
G--3--|
D--4--|
A--4--|
E--2--|

Post - Verse

e---------------------------------------|
B---------------------------------------|
G---------------------------------------| x4
D---------------------------------------|
A--2-4-2--------------------------------|
E---------3-4----------end on ---3------|

AFTER PLAYING THE ABOVE TWICE, THE SONG CONTINUES WITH:

Intermezzo (1:56)

e----------------------|
B----------------------|
G----------------------|        x8
D--2---2---2---2---2---|
A----1---2---1---1-----|
E-2--------------------|

In the meanwhile another guitar is rumbling a bit and plays a loud note on the end:
e--------------------------------------------------------------------------------|
B---------------------------------------------/14--------------------------------|
G--------------------------------------------------------------------------------|
D--------------------------------------------------------------------------------|
A--------------------------------------------------------------------------------|
E--------------------------------------------------------------------------------|


Verse is sung and the guitar continues juggling with

e----------------------|
B----------------------|
G----------------------|
D--2---2---2---2---2---|
A----1---2---1---1-----|
E-2--------------------|

Solo kicks in at 2:49

e------------------------------------------------------------------------------|
B--/14-14-14-14-12-14-12----12----12-------------------------------------------|
G------------------------15----15----15-15-13-15-13----------------------------| x2
D-----------------------------------------------------16-14-13-14-13-----------|
A----------------------------------------------------------------------16-16---|
E------------------------------------------------------------------------------|

End with the Post - Verse

e---------------------------------------|
B---------------------------------------|
G---------------------------------------| x4
D---------------------------------------|
A--2-4-2--------------------------------|
E---------3-4----------end on ---2------|

Thanks!
Добавлено: 21.11.2015
Другие материалы по этой песне:
  • Аккорды и текст

Страница создана 21.11.2015
http://primanota.ru/fat-white-family/wild-american-prairie-chords.htm
Привет, Гость.
Предлагаем пройти революционный курс по гитаре.
Подарок от PrimaNota.Ru, забирай!