PrimaNota.ru - самый крупный в мире бесплатный архив песенных текстов, аккордов, табулатур и нот


Fat White Family - Cream Of The Young - таба, видео

Регистрация Запомнить меня
Войти через:  Facebook Google Twitter Vk Yandex Mail.ru

Fat White Family - Cream Of The Young - таба, видео

Печатать
Просмотров: 46
Авторы: Fat White Family

Fat White Family  - 'Cream of the Young'

Tab for the intro and variations of it throughout the song.


0:00 to 0:19 

E------------------------------------------------------=---
B----------------------------------------------------------
G----------------------------------------------------------
D----------------------------0-2-2-2-0------0--------------
A-----0-0-0---0-0-2-2-0-2--2-----------2--2---2-0-2--------
E-0-3-------3------------------------------------------=---

E----------------------------------------------------------
B----------------------------------------------------------
G----------------------------------------------------------
D----------------------------0-2-2-2-0------0--------------
A-----0-0-0---0-0-2-2-0-2--2-----------2--2---2-0----------
E-0-3-------3-------------------------------------3-3-0----


1:40 to 1:59

E----------------------------------------------------------
B----------------------------------------------------------
G-------------------------------7-9-9-9-7-------7----------
D-------7-7-7----7-7-9-9-7-9--9-----------9-7-9---9-7-9----
A-7--10-------10-------------------------------------------
E----------------------------------------------------------

E----------------------------------------------------------
B----------------------------------------------------------
G----------------------------------7-9-9-9-7-------7-------
D-------7-7-7----7----7-9-9-7-9--9-----------9-7-9---9-7-9-
A-7--10-------10---10--------------------------------------
E----------------------------------------------------------

2:35 to 2:54

E----------------------------------------------------------
B----------------------------------------------------------
G-------------------------------7-9-9-9-7-------7----------
D-------7-7-7----7-7-9-9-7-9--9-----------9-7-9---9-7-9----
A-7--10-------10-------------------------------------------
E----------------------------------------------------------

E----------------------------------------------------------
B----------------------------------------------------------
G-------------------------------7-9-9-9-9-9-9-7-9-9-9-9----
D-------7-7-7----7-7-9-9-7-9--9----------------------------
A-7--10-------10-------------------------------------------
E----------------------------------------------------------



Добавлено: 21.11.2015
Вам также может быть интересно:
Другие материалы по этой песне:
  • Аккорды и текст

Страница создана 21.11.2015
http://primanota.ru/fat-white-family/cream-of-young-chords.htm
Привет, Гость.
Предлагаем пройти революционный курс по гитаре.
Подарок от PrimaNota.Ru, забирай!