PrimaNota.ru - самый крупный в мире бесплатный архив песенных текстов, аккордов, табулатур и нот


Fat Larry s Band - Here Comes The Sun - бас-таба, видео

Регистрация Запомнить меня
Войти через:  Facebook Google Twitter Vk Yandex Mail.ru

Fat Larry s Band - Here Comes The Sun - бас-таба, видео

Печатать
Просмотров: 148
-------------------------------------------------------------------------------
                 Here Comes the Sun - Fat Larry's Band
-------------------------------------------------------------------------------
There are two main sections to this song: They do not vary much throughout the 
song but you may want add a few changes of your own. 


Tabbed by: ryanhand


Tuning: Standard

============
Introduction 
============

G||-----------------5-h7-p5---------------------------------5-h7-p5------||
D||0----------------------------------0----------------------------------||
A||------0---------------------------------0-----------------------------||
E||------------3-------------------------------4--3----------------------||

  Three times

G|-----------------5-h7-p5--------------------------------------------------|
D|0----------------------------------0--------------------------------------|
A|------0---------------------------------0-----------3----3----3-3-3-3-----|
E|------------3-------------------------------4-----------------------------|

======
Verse
======

Now is the time for you...

G|---------------------------------|
D|---------------------------------|
A|5-------------------3----3--4----|
E|-----5-----3--5--6---------------|

G||-----7-7----------------------------------------||
D||--------------7---------------------------------||
A||5--------------------------------3---3---3-4----||
E||---------0--5-------5-4-3--5--6-----------------||


It's morning, good morning

G|---------------------------------------------------------------------------|
D|---------------------------------------------------------------------------|
A|---------------------0------0----------------------------------------------|
E|1------1-------------------------------------------------------------------|

=======
Chorus
=======

Shine on me, shine on youz

G||---------------------------------------------------|
D||------------------------------------------3--------|
A||1--1---0---0---0-3-4-5--5---0-0-3----5---------0---|
E||---------------------------------------------------|

Here it comes...

G|-------------------------------7-7-----7--------||
D|------------------------------------------------||
A|1--1---0---0---0-3-4-5--5---5-------5-----5--0--||  Repeat 3 times for first chorus
E|------------------------------------------------||

Shine it's light for everyone

G|-----------------------------------5--------5-------6-------6---|
D|---3------3-------3-------3-------------------------------------|
A|-------------------------------3-------3-------4-------4--------|
E|1-----1-------1-------1-----------------------------------------|


The rest of the song is made up from these sections.


| /  slide up
| \  slide down
| h  hammer-on
| p  pull-off
| ~  vibrato
| +  harmonic
| x  Mute note
|
| ||  ||  Repeat section between these markers
| ||  ||
===============================================================================
Добавлено: 15.09.2013
Вам также может быть интересно:
Другие материалы по этой песне:
  • Аккорды и текст

Страница создана 15.09.2013
http://primanota.ru/fat-larry-s-band/here-comes-the-sun-chords.htm
Привет, Гость.
Предлагаем пройти революционный курс по гитаре.
Подарок от PrimaNota.Ru, забирай!