PrimaNota.ru - самый крупный в мире бесплатный архив песенных текстов, аккордов, табулатур и нот


Fat Freddys Drop - Midnight Marauders - аккорды и текст, видео

Регистрация Запомнить меня
Войти через:  Facebook Google Twitter Vk Yandex Mail.ru

Fat Freddys Drop - Midnight Marauders - аккорды и текст, видео

Печатать
Просмотров: 180
Midnight Marauders
Fat Freddys Drop
Song:           Midnight Marauders
Artist:         Fat Freddy's Drop
Album:          Dub Conspiracy, The Green Room 001: Eco-Nation, Sonar Kollective
tabbed by James van Rooyen

Chords:
    Fm  C   C#
e---4---3---4----------------------------------------------------|
B---6---5---6----------------------------------------------------|
G---5---5---6----------------------------------------------------|
D----------------------------------------------------------------|
A----------------------------------------------------------------|
E----------------------------------------------------------------|

Intro Riff (Sonar Kollective & Green Room versions)
e----------------------------------------------------------------|
B-----4----------------------------------------------------------|
G---5---6-5-6----------------------------------------------------|
D-3--------------------------------------------------------------|
A----------------------------------------------------------------|
E----------------------------------------------------------------|

Chorus Riffs:
e-1--1--3--4--1-------6---4---3~--------------------------------------|
B-1--1--4--6--1-------8---6---5~--------------------------------------|
G---------------------8---6---5~--------------------------------------|
D---------------------------------------------------------------------|
A---------------------------------------------------------------------|
E---------------------------------------------------------------------|


Intro Chords:
  Fm    C


C#
Take my eyes that I could be so blind
  C                                     C#
I could not see it was there, waiting

Lost and found, the second time around
    C                                                 C#
Was good for me, now I see, would not waste a moment, oh no

Chorus:
C#              C
Midnight Marauders
                C#
Midnight Marauders
                C
Midnight Marauders

Midnight...

Fm
Did my time, took a look around you
Off the track them roots grow strong
C
Man in the radio plays the tune
Seed of the midnight flower bloom
Fm
See them come to the midnight show
Who's gonna be the one to go?
C
Who's gonna be that one to lead?
Please

Chorus

Fm
Oh well you work all day, up to the night
And find your way home, ooh
C
Midnight marauders you would never walk alone
Fm
Oh brother time has come for us to leave
The problems of the day
C
and I would not waste a moment, no way
No way

Chorus:
Fm
Midnight Marauders
C
Midnight Marauders
Fm
Midnight Marauders
C
Midnight...

Fm
Went to the corner store to buy me
Cigarettes and some papers
         C
When the girl at the counter caught my eye
Asked me to meet her later, she said
Fm
Down by the door at the back of the store
There's a place where you can wait
   C
Oh, placing your order with me now

Fm
Ringing on my bell
Knocking on my door
C
She be ringing on my bell
Knocking on my door
Fm
She be ringing on my bell
Knocking on my door
etc

                                 Fm
Knock 3 times so I know it's you
                                 Fm
Knock 2 times so I know it's you
C
Please, Please
Knock 1 time so I know it's you
Knock 2 times so I know it's you
Please
Knock 4 times so I know it's you
Knock 2 times so I know it's you
Please
Knock on the once so I know it's you
Knock on the two so I know it's you
Please

We are the midnight marauders, oh
We are the midnight marauders, yeah
We be the midnight marauders, oh
We are the midnight marauders, yeah
We are the midnight marauders

Midnight marauders, Placing your orders, oh
Добавлено: 05.04.2012
Другие материалы по этой песне:
  • Аккорды и текст

Страница создана 05.04.2012
http://primanota.ru/fat-freddys-drop/midnight-marauders-chords.htm
Привет, Гость.
Предлагаем пройти революционный курс по гитаре.
Подарок от PrimaNota.Ru, забирай!