PrimaNota.ru - самый крупный в мире бесплатный архив песенных текстов, аккордов, табулатур и нот


Faster Pussycat - Faster Pussycat (album) - бас-таба, видео

Регистрация Запомнить меня
Войти через:  Facebook Google Twitter Vk Yandex Mail.ru

Faster Pussycat - Faster Pussycat (album) - бас-таба, видео

Печатать
Просмотров: 90
-------------------------------------------------------------------------------
                   Faster Pussycat - Faster Pussycat (1987)
-------------------------------------------------------------------------------
Tabbed by: ChrisT

1. Don't Change That Song
2. Bathroom Wall
3. No Room For Emotion
4. Cathouse
5. Babylon
6. Smash Alley
7. Shooting You Down
8. City Has No Heart
9. Ship Rolls In
10 Bottle In Front Of Me

-------------------------------------------------------------------------------
                        Don't Change That Song
-------------------------------------------------------------------------------

Tuning: Standard

Intro
G|---------------------------------------------9-9-9-9-9-7-6--------|
D|---5h7-------------5h7-------------5h7---------------------9-7\---|
A|------------------------------------------------------------------|
E|------------------------------------------------------------------|

                              Repeat x4
G|-------------------------------------|
D|o---------------------------2-5-2---o|
A|o-------------------3h5---3---------o|
E|----3h5---5-5---5-5------------------|

Verse 1                                                         Repeat x4 
G|-----------------------------------------------------------------------|
D|o-------------------------------------------------------------2-5-2---o|
A|o----------------------------------------------------3h5----3---------o|
E|---3h5-5-5-5-5-5-5-5-5-5-5-5-5-5-5-5-3h5-5-5-5-5-5-5-------------------|

G|-------------------------------------------------------5-----7---|
D|-----------------------------------------------------5-----7-----|
A|---------------------------------------------------3-----5-------|
E|---3---0-0-0-0-0-0-3---0-0-0-0-0-0-3---0-0-0-0-0-0---------------|

G|--------------------------------------------------------------------|
D|--------------------------------------------------------------------|
A|--------------------------------------------------------------------|
E|---3---0-0-0-0-0-0-3---0-0-0-0-0-0-3---0-0-0-3---0---3---0---3/15---|

Chorus
G|-------------------------------------|
D|o---------------------------2-5-2---o|
A|o-------------------3h5---3---------o|
E|----3h5-5-5-5-5-5-5------------------|

Verse 2                                                         Repeat x4 
G|-----------------------------------------------------------------------|
D|o-------------------------------------------------------------2-5-2---o|
A|o----------------------------------------------------3h5----3---------o|
E|---3h5-5-5-5-5-5-5-5-5-5-5-5-5-5-5-5-3h5-5-5-5-5-5-5-------------------|

G|-------------------------------------------------------5-----7---|
D|-----------------------------------------------------5-----7-----|
A|---------------------------------------------------3-----5-------|
E|---3---0-0-0-0-0-0-3---0-0-0-0-0-0-3---0-0-0-0-0-0---------------|

G|--------------------------------------------------------------------|
D|--------------------------------------------------------------------|
A|--------------------------------------------------------------------|
E|---3---0-0-0-0-0-0-3---0-0-0-0-0-0-3---0-0-0-3---0---3---0---3/15---|

Chorus
G|-------------------------------------|
D|o---------------------------2-5-2---o|
A|o-------------------3h5---3---------o|
E|----3h5-5-5-5-5-5-5------------------|

G|-----------------------5-7/12-12-12-12-12-10-----------|
D|-------------5h7-----7-----------------------12-10-----|
A|-------3h5/7-----5-------------------------------12\---|
E|---3h5-------------------------------------------------|

G|-----------------------5-7/12-12-12-12-12-12-12-12-12-12-12-12-12-12-12---|
D|-------------5h7-----7----------------------------------------------------|
A|-------3h5/7-----5--------------------------------------------------------|
E|---3h5--------------------------------------------------------------------|

Guitar Solo                   Repeat x4                         Repeat x3
G|-------------------------------------|---------------------------------|
D|o---------------------------2-5-2---o|o---------------5-4-2-5-4-2-----o|
A|o-------------------3h5---3---------o|o-------------------------------o|
E|----3h5-5-5-5-5-5-5------------------|----0---0-0-0-0-------------0----|

Outro                                          Repeat until end
G|-----------------------|-------------------------------------|
D|-----------------------|o---------------------------2-5-2---o|
A|---7-7-7-7-7-7-7-7-7---|o-------------------3h5---3---------o|
E|-----------------------|----3h5-5-5-5-5-5-5------------------|

==============================================================================


------------------------------------------------------------------------------
                       Bathroom Wall
------------------------------------------------------------------------------

Tuning: Standard

Intro (0:06)   
G|----------------------------------------------------------------------|
D|o--------------------------------------------------------------------o|
A|o--------------------------------------------------------------------o|
E|---0-1-2-3-3-3-3-3-3-3-3-3-3-3-3-3-0-1-2-3-3-3-3-3-3-3-3-3-3-3-3-3----|

G|----------------------------------------------------------------------|
D|----------------------------------------------------------------------|
A|---0-1-2-3-3-3-3-3-3-3-3-3-3-3-3-3-------------------------------4----|
E|-----------------------------------0-1-2-3-3-3-3-3-3-3-3-3-3-5-7------|

G|----------------------------------------------------------------------|
D|-------4-5-7-5-4-------2-3-5-3-2--------------------------------------|
A|---5-5-------------3-3------------------------------------------------|
E|----------------------------------\2h3-3-3-2h3-3-3-2h3-3-3---3-3-3----|

G|----------------------------------------------------------------------|
D|----------------------------------------------------------------------|
A|----------------------------------------------------------------------|
E|---0-1-2-3-3-3-3-3-3-3-3-3-3-3-3-3-0-1-2-3-3-3-3-3-3-3-3-3-3-3-3-3----|

G|----------------------------------------------------------------------|
D|----------------------------------------------------------------------|
A|---0-1-2-3-3-3-3-3-3-3-3-3-3-3-3-3------------------------------------|
E|-----------------------------------0-1-2-3-3-3-3-3-3-3-3-3-3-3-3-3----|

G|----------------------------------------------------------------------|
D|-------4-5-7-5-4-------2-3-5-3-2--------------------------------------|
A|---5-5-------------3-3-----------------------------5-3-2-0-3-2-0------|
E|-----------------------------------2h3-3-3-2h3-3-3---------------3----|

Verse
G|----------------------------------------------------------------------|
D|o---------------------------------------------------------------------|
A|o---------------------------------------------------------------------|
E|---0-1-2-3-3-3-3-3-3-3-3-3-3-3-3-3-0-1-2-3-3-3-3-3-3-3-3-3-3-3-3-3----|

G|----------------------------------------------------------------------|
D|----------------------------------------------------------------------|
A|---0-1-2-3-3-3-3-3-3-3-3-3-3-3-3-3-------------------------------4----|
E|-----------------------------------0-1-2-3-3-3-3-3-3-3-3-3-3-5-7------|

G|----------------------------------------------------------------------|
D|-------4-5-7-5-4-------2-3-5-3-2-------------------------------------o|
A|---5-5-------------3-3-----------------------------------------------o|
E|-----------------------------------2h3-3-3-2h3-3-3-2h3-3-3---3-3-3----|

Chorus
G|----------------------------------------------------------------------|
D|o--------------------------------------------------------------------o|
A|o--2-2-2-2-2-2-2-4-5-5-5-5-5-5-5-5-----------------------------------o|
E|-----------------------------------2h3-3-3-2h3-3-3-2h3-3-3---3-3-3----|

G|----------------------------------------------------------------------|
D|----------------------------------------------------------------------|
A|-----------------------------------------------------------------4----|
E|---0-1-2-3-3-3-3-3-3-3-3-3-3-3-3-3-0-1-2-3-3-3-3-3-3-3-3-3-3-5-7------|

G|----------------------------------------------------------------------|
D|-------4-5-7-5-4-------2-3-5-3-2-------------------------------------o|
A|---5-5-------------3-3-----------------------------------------------o|
E|-----------------------------------2h3-3-3-2h3-3-3-2h3-3-3---3-3-3----|

Verse
G|----------------------------------------------------------------------|
D|----------------------------------------------------------------------|
A|----------------------------------------------------------------------|
E|---0-1-2-3-3-3-3-3-3-3-3-3-3-3-3-3-0-1-2-3-3-3-3-3-3-3-3-3-3-3-3-3----|

G|----------------------------------------------------------------------|
D|----------------------------------------------------------------------|
A|---0-1-2-3-3-3-3-3-3-3-3-3-3-3-3-3-------------------------------4----|
E|-----------------------------------0-1-2-3-3-3-3-3-3-3-3-3-3-5-7------|

G|----------------------------------------------------------------------|
D|-------4-5-7-5-4-------2-3-5-3-2--------------------------------------|
A|---5-5-------------3-3------------------------------------------------|
E|-----------------------------------2h3-3-3-2h3-3-3-2h3-3-3---3-3-3----|

Chorus
G|----------------------------------------------------------------------|
D|o--------------------------------------------------------------------o|
A|o--2-2-2-2-2-2-2-4-5-5-5-5-5-5-5-5-----------------------------------o|
E|-----------------------------------2h3-3-3-2h3-3-3-2h3-3-3---3-3-3----|

Guitar Solo
G|----------------------------------------------------------------------|
D|o---------------------------------------------------------------------|
A|o---------------------------------------------------------------------|
E|---0-1-2-3-3-3-3-3-3-3-3-3-3-3-3-3-0-1-2-3-3-3-3-3-3-3-3-3-3-3-3-3----|

G|----------------------------------------------------------------------|
D|----------------------------------------------------------------------|
A|---0-1-2-3-3-3-3-3-3-3-3-3-3-3-3-3-------------------------------4----|
E|-----------------------------------0-1-2-3-3-3-3-3-3-3-3-3-3-5-7------|

G|----------------------------------------------------------------------|
D|-------4-5-7-5-4-------2-3-5-3-2-------------------------------------o|
A|---5-5-------------3-3-----------------------------------------------o|
E|-----------------------------------2h3-3-3-2h3-3-3-2h3-3-3---3-3-3----|

Verse
G|----------------------------------------------------------------------|
D|----------------------------------------------------------------------|
A|----------------------------------------------------------------------|
E|---0-1-2-3-3-3-3-3-3-3-3-3-3-3-3-3-0-1-2-3-3-3-3-3-3-3-3-3-3-3-3-3----|

G|----------------------------------------------------------------------|
D|----------------------------------------------------------------------|
A|---0-1-2-3-3-3-3-3-3-3-3-3-3-3-3-3-------------------------------4----|
E|-----------------------------------0-1-2-3-3-3-3-3-3-3-3-3-3-5-7------|

G|----------------------------------------------------------------------|
D|-------4-5-7-5-4-------2-3-5-3-2--------------------------------------|
A|---5-5-------------3-3------------------------------------------------|
E|-----------------------------------2h3-3-3-2h3-3-3-2h3-3-3---3-3-3----|

Chorus                                                         Repeat x3
G|----------------------------------------------------------------------|
D|o--------------------------------------------------------------------o|
A|o--2-2-2-2-2-2-2-4-5-5-5-5-5-5-5-5-----------------------------------o|
E|-----------------------------------2h3-3-3-2h3-3-3-2h3-3-3---3-3-3----|

G|----------------------------------------------------------------------|
D|----------------------------------------------------------------------|
A|---2-2-2-2-2-2-2-4-5-5-5-5-5-5-5-5------------------------------------|
E|-----------------------------------3---3---3-0-1-3---3~---------------|

=================================================================================


---------------------------------------------------------------------------------
                             No Room For Emotion
---------------------------------------------------------------------------------

Tuning: Standard

Intro
G|-----------------------------------------------------------------------|
D|-----------------------------------------------------------------------|
A|--0-2-4-5------------------------0-2-4-5---5---------5---5---------5---|
E|-----------------------------------------------3-5-----------3-5-------|

G|---------------------------------------------------------------------------|
D|---------------------------------------------------------------------------|
A|--5-5-5-5-5-----------5----5-5-5-5-5------------5---5-5-5-5-5-5-5-5-5-5-5--|
E|--------------3---5--------------------3---5-------------------------------|

Verse 1
G|--------------------------------------------------------------------------------|
D|o-------------------------------------------------------------------------------|
A|o--0-2-4-5---5---------5---5---------5---5-5-5-5-5-5-----------5---5-5-5-5-5-5--|
E|-----------------3-5-----------3-5---------------------3---5--------------------|

                            Play 1st time only
G|-------------------------|------------------|---------------------|
D|-------------------------|-----------------o|--/7-5-4-------------|
A|----------5---5-5-5-5-5--|--5-5-5-5-5-5-5--o|---------7-5---------|
E|--3---5------------------|------------------|-------------8-7-5---|

Chorus
G|------------------------------------------------------|
D|o----------------------------------------------------o|
A|o----------------------0-2-4-5-5-3---3---5-5-3---3---o|
E|---3---3-0-2-3-5-5-5-5-------------5-----------5------|

G|--------------------------------------------------------------------|
D|------------------------------------------------------4-7-4---------|
A|----------------------4-5-7-5---------------------4-7-------7-4-----|
E|--3---3-0-2-3-5-5-5-5-------------5-5-5-5-5-5-5-5---------------5---|

Verse 2
G|--------------------------------------------------------------------------|
D|o-------------------------------------------------------------------------|
A|o--5---5---------5---5---------5---5-5-5-5-5-5-----------5---5-5-5-5-5-5--|
E|-----------3-5-----------3-5---------------------3---5--------------------|

                            Play 1st time only
G|-------------------------|------------------------|---------------------|
D|-------------------------|-----------------------o|--/7-5-4-------------|
A|----------5---5-5-5-5-5--|--5-5-5-5-5-5-5-0-2-4--o|---------7-5---------|
E|--3---5------------------|------------------------|-------------8-7-5---|

Chorus
G|------------------------------------------------------|
D|o----------------------------------------------------o|
A|o----------------------0-2-4-5-5-3---3---5-5-3---3---o|
E|---3---3-0-2-3-5-5-5-5-------------5-----------5------|

G|--------------------------------------------------------------------|
D|------------------------------------------------------4-7-4---------|
A|----------------------4-5-7-5---------------------4-7-------7-4-----|
E|--3---3-0-2-3-5-5-5-5-------------5-5-5-5-5-5-5-5---------------5---|

Guitar Solo
G|--------------------------------------------------------------------------|
D|o-------------------------------------------------------------------------|
A|o--5---5---------5---5---------5---5-5-5-5-5-5-----------5---5-5-5-5-5-5--|
E|-----------3-5-----------3-5---------------------3---5--------------------|

                            Play 1st time only
G|-------------------------|------------------------|---------------------|
D|-------------------------|-----------------------o|--/7-5-4-------------|
A|----------5---5-5-5-5-5--|--5-5-5-5-5-5-5-0-2-4--o|---------7-5---------|
E|--3---5------------------|------------------------|-------------8-7-5---|

Outro                                   Repeat until end
G|------------------------------------------------------|
D|o----------------------------------------------------o|
A|o----------------------0-2-4-5-5-3---3---5-5-3---3---o|
E|---3---3-0-2-3-5-5-5-5-------------5-----------5------|

===============================================================================


-------------------------------------------------------------------------------
                               Cathouse
-------------------------------------------------------------------------------

Tuning: Standard

Intro
G|------------------------------------------------------|
D|------------------------------------------------------|
A|---------------------------------------3--------------|
E|---12\-3---------------1------------------------------|

G|----------------------------------------------------------------------|
D|----------------------------------------------------------------------|
A|-----------------------------------3---3-3-3-3-3-3-3---3-3-3-3-3-3----|
E|---3---3-3-3-3-3-3-1---1-1-1-1-1-1------------------------------------|

G|----------------------------------------------------------------------|
D|-----------------------------------------------------3---3-1----------|
A|-----------------------------------3---3-3-3-3-3-3-3-----------3-1----|
E|---3---3-3-3-3-3-3-1---1-1-1-1-1-1------------------------------------|

Verse 1                                      Repeat x4
G|----------------------------------------------------|
D|o--------------------------------------------------o|
A|o------5-5-4-4-3-------5-5-4-4-3-----3---3-3-3-3---o|
E|---3-3-------------3-3------------------------------|

Chorus                                                          Repeat x4
G|-----------------------------------------------------------------------|
D|o-----------------------------------------2---3-3-5-------2---3-3-5---o|
A|o-------------------5---5-5-5-5-5-5-3---3-----------3---3-------------o|
E|----3---3-3-3-3-3-3----------------------------------------------------|

G|----------------------------------------------------------------------|
D|----------------------------------------------------------------------|
A|-----------------------------------3---3-3-3-3-3-3-3---3-3-3-3-3-1----|
E|---3---3-3-3-3-3-3-1---1-1-1-1-1-1------------------------------------|

G|----------------------------------------------------------------------|
D|-----------------------------------------------------3---3-1----------|
A|-----------------------------------3---3-3-3-3-3-3-3-----------3-1----|
E|---3---3-3-3-3-3-3-1---1-1-1-1-1-1------------------------------------|

Verse 2                                      Repeat x4
G|----------------------------------------------------|
D|o--------------------------------------------------o|
A|o------5-5-4-4-3-------5-5-4-4-3-----3---3-3-3-3---o|
E|---3-3-------------3-3------------------------------|

Chorus                                                          Repeat x4
G|-----------------------------------------------------------------------|
D|o-----------------------------------------2---3-3-5-------2---3-3-5---o|
A|o-------------------5---5-5-5-5-5-5-3---3-----------3---3-------------o|
E|----3---3-3-3-3-3-3----------------------------------------------------|

Guitar Solo
G|----------------------------------------------------------------------|
D|----------------------------------------------------------------------|
A|-----------------------------------3---3-3-3-3-3-3-3---3-3-3-3-3-3----|
E|---3---3-3-3-3-3-3-1---1-1-1-1-1-1------------------------------------|

G|----------------------------------------------------------------------------|
D|----------------------------------------------------------------------------|
A|-----------------------------------3---3-3-3-3-3-3/15---15-15-15-15-15-15\--|
E|---3---3-3-3-3-3-3-1---1-1-1-1-1-1------------------------------------------|

G|----------------------------------------------------------------------|
D|---------------------------------------------------3---3-1---0--------|
A|-----------------------------------3---3-3-3-3-3-3-------------3-3----|
E|---3---3-3-3-3-3-3-1---1-1-1-1-1-1------------------------------------|

G|------------------------------------------------------------------------|
D|------------------------------------------------------------------------|
A|-----------------------------------3/15------/15------/15------/15------|
E|---3---3-3-3-3-3-3-1---1-1-1-1-1-1--------------------------------------|

Bridge
G|----------------------------------------------------------------------|
D|----------------------------------------------------------------------|
A|-----------------------------------3---3-3-3-3-3-3-3---3-3-3-3-3-3----|
E|---3---3-3-3-3-3-3-1---1-1-1-1-1-1------------------------------------|

G|--------------------------------------------------------------------------|
D|--------------------------------------------------------------------------|
A|-----------------------------------3-3-3-3-3-3-3-3/15-15-15-15-15-15-15---|
E|---3---------------1------------------------------------------------------|

Chorus                                                          Repeat x4
G|-----------------------------------------------------------------------|
D|o-----------------------------------------2---3-3-5-------2---3-3-5---o|
A|o-------------------5---5-5-5-5-5-5-3---3-----------3---3-------------o|
E|----3---3-3-3-3-3-3----------------------------------------------------|

Outro                                                     Repeat until end
G|------------------------------------------------------------------------|
D|o-----------------------------------------4---5-5-7-------4---5-5-7----o|
A|o-------------------7---7-7-7-7-7-7-5---5-----------5---5--------------o|
E|---5---5-5-5-5-5-5------------------------------------------------------|

===============================================================================


------------------------------------------------------------------------------
                              Babylon
------------------------------------------------------------------------------

Tuning: Standard

Intro (0:09)
G|-----------------------------------------|
D|o---------------------------------------o|
A|o---------------------------------------o|
E|---3-2-1-0-3-5-5-7-7-3-5-5-3-0---0-0-----|

Verse
G|---------------------------------------------------------------------------|
D|---------------------------------------------------------------------------|
A|---------------------------------------------------------------------------|
E|---3-2-1-0--------------------------------0-3-5-5-7-7-3-5-5-3-0------------|

G|---------------------------------------------------------------------------|
D|---------------------------------------------------------------------------|
A|---------------------------------------------------------------------------|
E|---3-2-1-0-3-5-5-7-7-3-5-5-3-0------------0-3-5-5-7-7-3-5-5-3-0------------|

G|-----------------------------------------|
D|-----------------------------------------|
A|-----------------------------------------|
E|---3-2-1-0-3-5-5-7-7-3-5-5-3-0---0-0-----|

Chorus
G|-----------------------------------------------------------|
D|---------------5-4-----------------------------------------|
A|---2-3-4-5-5-5-----2-2-2-2-2-2-2-2-------------------------|
E|-----------------------------------0--3--0---0-0-3---0-----|

G|--------------------------------------|
D|---------------5-4--------------------|
A|---2-3-4-5-5-5-----2-2-2-2-2-2-2-2----|
E|--------------------------------------|

G|----------------------------------------------------------------------|
D|----------------------------------------------------------------------|
A|----------------------------------------------------------------------|
E|---0-3-5-5-7-7-3-5-5-3-0---0-0---3-2-1-0-3-5-5-7-7-3-5-5-3-0---0-0----|

Verse
G|---------------------------------------------------------------------------|
D|---------------------------------------------------------------------------|
A|---------------------------------------------------------------------------|
E|---3-2-1-0--------------------------------0-3-5-5-7-7-3-5-5-3-0------------|

G|---------------------------------------------------------------------------|
D|---------------------------------------------------------------------------|
A|---------------------------------------------------------------------------|
E|---3-2-1-0-3-5-5-7-7-3-5-5-3-0------------0-3-5-5-7-7-3-5-5-3-0------------|

G|-----------------------------------------|
D|-----------------------------------------|
A|-----------------------------------------|
E|---3-2-1-0-3-5-5-7-7-3-5-5-3-0---0-0-----|

Chorus
G|-----------------------------------------------------------|
D|---------------5-4-----------------------------------------|
A|---2-3-4-5-5-5-----2-2-2-2-2-2-2-2-------------------------|
E|-----------------------------------0--3--0---0-0-3---0-----|

G|--------------------------------------|
D|---------------5-4--------------------|
A|---2-3-4-5-5-5-----2-2-2-2-2-2-2-2----|
E|--------------------------------------|

Guitar Solo
G|------------------------------------------------------------------7h9-----------|
D|----------------------------------------------------------------------7h9-------|
A|--------------------------------------------------------------------------7h9p7-|
E|--0-3-5-5-7-7-3-5-5-3-0---0-0---3-2-1-0-3-5-5-7-7-3-5-5-3-0---0-0---------------|

G|----------------------------------------------------------------------|
D|----------------------------------------------------------------------|
A|----------------------------------------------------------------------|
E|---0-3-5-5-7-7-3-5-5-3-0---0-0---3-2-1-0-3-5-5-7-7-3-5-5-3-0---0-0----|

Verse
G|---------------------------------------------------------------------------|
D|---------------------------------------------------------------------------|
A|---------------------------------------------------------------------------|
E|---3-2-1-0--------------------------------0-3-5-5-7-7-3-5-5-3-0------------|

G|---------------------------------------------------------------------------|
D|---------------------------------------------------------------------------|
A|---------------------------------------------------------------------------|
E|---3-2-1-0-3-5-5-7-7-3-5-5-3-0------------0-3-5-5-7-7-3-5-5-3-0------------|

G|-----------------------------------------|
D|-----------------------------------------|
A|-----------------------------------------|
E|---3-2-1-0-3-5-5-7-7-3-5-5-3-0---0-0-----|

Chorus
G|-----------------------------------------------------------|
D|---------------5-4-----------------------------------------|
A|---2-3-4-5-5-5-----2-2-2-2-2-2-2-2-------------------------|
E|-----------------------------------0--3--0---0-0-3---0-----|

G|--------------------------------------|
D|---------------5-4--------------------|
A|---2-3-4-5-5-5-----2-2-2-2-2-2-2-2----|
E|--------------------------------------|

G|----------------------------------------------------------------------------|
D|-------------------------------4-4-----------------------------------4-4----|
A|----------------------------------------------------------------------------|
E|---0-3-5-5-7-7-3-5-5-3-0---0-0-----3-2-1-0-3-5-5-7-7-3-5-5-3-0---0-0--------|

G|----------------------------------------------------------------------|
D|-------------------------------4--------------------------------------|
A|----------------------------------------------------------------------|
E|---0-3-5-5-7-7-3-5-5-3-0---0-0---3-2-1-0-3-5-5-7-7-3-5-5-3-0---0-0----|

===============================================================================
-------------------------------------------------------------------------------
                            Smash Alley
-------------------------------------------------------------------------------

Tuning: Standard

Intro          Repeat x6
G|----------------------|----------------------|----------------------|
D|o--------------------o|o--------------------o|o--------------------o|
A|o--------------------o|o--0-0-3-0-6-6-4-3---o|o--------------------o|
E|---0-0-3-0-6-6-4-3----|----------------------|---0-0-3-0-6-6-4-3----|

G|----------------------------------------------------|
D|----------------------------------------------------|
A|---3---3-3-3-2---2-2-----------------------5---5----|
E|---------------------3-2-0-0-3-0-6-6-4-3------------|

Verse 1        Repeat x4
G|----------------------|----------------------|----------------------|
D|o--------------------o|o--------------------o|o--------------------o|
A|o--------------------o|o--0-0-3-0-6-6-4-3---o|o--------------------o|
E|---0-0-3-0-6-6-4-3----|----------------------|---0-0-3-0-6-6-4-3----|

Chorus
G|----------------------------------------------------|
D|----------------------------------------------------|
A|---3---3-3-3-2---2-2-----------------------5---5----|
E|---------------------3-2-0-0-3-0-6-6-4-3------------|

Verse 2        Repeat x4
G|----------------------|----------------------|----------------------|
D|o--------------------o|o--------------------o|o--------------------o|
A|o--------------------o|o--0-0-3-0-6-6-4-3---o|o--------------------o|
E|---0-0-3-0-6-6-4-3----|----------------------|---0-0-3-0-6-6-4-3----|

Chorus
G|----------------------------------------------------|
D|----------------------------------------------------|
A|---3---3-3-3-2---2-2-----------------------5---5----|
E|---------------------3-2-0-0-3-0-6-6-4-3------------|

                    Repeat x4
G|---------------------------|-------------------------------------|
D|o-------------------------o|-------------------------------------|
A|o-------------------------o|---5---5-5-5-5-5-5-3---3-3-3---------|
E|---0-0---3-5---5-5-6-5-3---|-----------------------------5-3-2---|

G|-----------------------------|
D|-----------------------------|
A|---------------------5---5---|
E|---0-0-3-0-6-6-4-3-----------|

Verse 3        Repeat x4
G|----------------------|----------------------|----------------------|
D|o--------------------o|o--------------------o|o--------------------o|
A|o--------------------o|o--0-0-3-0-6-6-4-3---o|o--------------------o|
E|---0-0-3-0-6-6-4-3----|----------------------|---0-0-3-0-6-6-4-3----|

Chorus
G|----------------------------------------------------|
D|----------------------------------------------------|
A|---3---3-3-3-2---2-2-----------------------5---5----|
E|---------------------3-2-0-0-3-0-6-6-4-3------------|

                    Repeat x4
G|---------------------------|-------------------------------------|
D|o-------------------------o|-------------------------------------|
A|o-------------------------o|---5---5-5-5-5-5-5-3---3-3-3---------|
E|---0-0---3-5---5-5-6-5-3---|-----------------------------5-3-2---|

G|-----------------------------|
D|-----------------------------|
A|---------------------5---5---|
E|---0-0-3-0-6-6-4-3-----------|

Guitar Solo    Repeat x4
G|----------------------|----------------------|----------------------|
D|o--------------------o|o--------------------o|o--------------------o|
A|o--------------------o|o--0-0-3-0-6-6-4-3---o|o--------------------o|
E|---0-0-3-0-6-6-4-3----|----------------------|---0-0-3-0-6-6-4-3----|

G|----------------------------------------------------|
D|----------------------------------------------------|
A|---3---3-3-3-2---2-2-----------------------5---5----|
E|---------------------3-2-0-0-3-0-6-6-4-3------------|

                    Repeat x4
G|---------------------------|
D|o-------------------------o|
A|o-------------------------o|
E|---0-0---3-5---5-5-6-5-3---|

Outro chorus        Repeat x6
G|---------------------------|-------------------------------------|
D|o-------------------------o|-------------------------------------|
A|o-------------------------o|---5---5-5-5-5-5-5-3---3-3-3---------|
E|---0-0---3-5---5-5-6-5-3---|-----------------------------5-3-2---|

G|---------------------------|
D|---------------------------|
A|---------------------7\----|
E|---0-0-3-0-6-6-4-3---------|


===============================================================================


------------------------------------------------------------------------------------
                            Shooting You Down
------------------------------------------------------------------------------------

Tuning: Standard

Intro
G|----------------------------------------------------|
D|----------------------------------------------------|
A|----------------------------------------------------|
E|---0-0-0-0-0-0-0-0-0-0-0-0-5-7-8-7-7-7-7-7-7-7-7----|

G|----------------------------------------------------|
D|----------------------------------------------------|
A|----------------------------------------------------|
E|---5-5-5-5-5-5-5-5-0-0-0-0-0-0-0-0-0-0-0-0-0-0-0----|

Verse 1
G|-----------------------------------------------------|
D|o----------------------------------------------------|
A|o----------------------------------------------------|
E|----0-0-0-0-0-0-0-0-0-0-0-0-5-7-8-7-7-7-7-7-7-7-7----|

G|-----------------------------------------------------|
D|----------------------------------------------------o|
A|----------------------------------------------------o|
E|---5-5-5-5-5-5-5-5-0-0-0-0-0-0-0-0-0-0-0-0-0-0-0-----|

Chorus
G|----------------------------------------------------------------------|
D|---------------------------------------------------2---0--------------|
A|-------------------0-2-2---2---2---------------------------2----------|
E|---3-3-3-3-3-3-3-3-----------------0-0-0-0-0-0-0-0-------------3------|

G|----------------------------------------------------------|
D|----------------------------------------------------------|
A|-------------------2-2-2-2-2-2-2-2/7-7-7-7-7-7-7-7-7-7----|
E|---3-3-3-3-3-3-3-3----------------------------------------|

                                Repeat x4
G|-------------------|-------------------|-----------------------------------------|
D|o-----------------o|o-----------------o|---------------------11-15----11-15------|
A|o-----------------o|o-5-5-5-5-5-5-5-5-o|-----------------/12-------12-------12\--|
E|--5-5-5-5-5-5-5-5--|-------------------|--5-5-5-5-5-5-5-5------------------------|

                                    Repeat x4
G|---------------------|---------------------|-----------------------|
D|o-------------------o|o-------------------o|-----------------------|
A|o-------------------o|o--5-5-5-5-5-5-5-5--o|-----------------------|
E|---5-5-5-5-5-5-5-5---|---------------------|---5-5-5-5-5-5-5-5-5---|

Verse 2
G|-----------------------------------------------------|
D|o----------------------------------------------------|
A|o----------------------------------------------------|
E|----0-0-0-0-0-0-0-0-0-0-0-0-5-7-8-7-7-7-7-7-7-7-7----|

G|-----------------------------------------------------|
D|----------------------------------------------------o|
A|----------------------------------------------------o|
E|---5-5-5-5-5-5-5-5-0-0-0-0-0-0-0-0-0-0-0-0-0-0-0-----|

Chorus
G|----------------------------------------------------------------------|
D|---------------------------------------------------2---0--------------|
A|-------------------0-2-2---2---2---------------------------2----------|
E|---3-3-3-3-3-3-3-3-----------------0-0-0-0-0-0-0-0-------------3------|

G|----------------------------------------------------------|
D|----------------------------------------------------------|
A|-------------------2-2-2-2-2-2-2-2/7-7-7-7-7-7-7-7-7-7----|
E|---3-3-3-3-3-3-3-3----------------------------------------|

                                Repeat x4
G|-------------------|-------------------|-----------------------------------------|
D|o-----------------o|o-----------------o|---------------------11-15----11-15------|
A|o-----------------o|o-5-5-5-5-5-5-5-5-o|-----------------/12-------12-------12\--|
E|--5-5-5-5-5-5-5-5--|-------------------|--5-5-5-5-5-5-5-5------------------------|

                                    Repeat x4
G|---------------------|---------------------|---------------------|
D|o-------------------o|o-------------------o|o-------------------o|
A|o-------------------o|o--5-5-5-5-5-5-5-5--o|o-------------------o|
E|---5-5-5-5-5-5-5-5---|---------------------|---5-5-5-5-5-5-5-5---|

                                                         1st Time Only
G|------------------------------------------------------|------------------|
D|o-----------------------------------------------------|-----------------o|
A|o--3-3-3-3-3-3-3-3-2-2-2-2-2-2-2-2--------------------|-----------------o|
E|-----------------------------------5-5-5-5-5-5-5-5-5--|--5-5-5-5-5-5-5---|

Guitar Solo
G|-----------------------------------------------------|
D|o----------------------------------------------------|
A|o----------------------------------------------------|
E|----0-0-0-0-0-0-0-0-0-0-0-0-5-7-8-7-7-7-7-7-7-7-7----|

G|-----------------------------------------------------|
D|----------------------------------------------------o|
A|----------------------------------------------------o|
E|---5-5-5-5-5-5-5-5-0-0-0-0-0-0-0-0-0-0-0-0-0-0-0-----|

Chorus
G|----------------------------------------------------------------------|
D|---------------------------------------------------2---0--------------|
A|-------------------0-2-2---2---2---------------------------2----------|
E|---3-3-3-3-3-3-3-3-----------------0-0-0-0-0-0-0-0-------------3------|

G|----------------------------------------------------------|
D|----------------------------------------------------------|
A|-------------------2-2-2-2-2-2-2-2/7-7-7-7-7-7-7-7-7-7----|
E|---3-3-3-3-3-3-3-3----------------------------------------|

Outro                           Repeat x4
G|-------------------|-------------------|-----------------------------------------|
D|o-----------------o|o-----------------o|---------------------11-15----11-15------|
A|o-----------------o|o-5-5-5-5-5-5-5-5-o|-----------------/12-------12-------12\--|
E|--5-5-5-5-5-5-5-5--|-------------------|--5-5-5-5-5-5-5-5------------------------|

                                    Repeat x4
G|---------------------|---------------------|----------------------------------|
D|o-------------------o|o-------------------o|----------------------------------|
A|o-------------------o|o--5-5-5-5-5-5-5-5--o|--------------------4-7---4-7-----|
E|---5-5-5-5-5-5-5-5---|---------------------|--5-5-5-5-5-5-5-5-5-----5-----5---|

                                    Repeat x4
G|---------------------|---------------------|---------------------|
D|o-------------------o|o-------------------o|o-------------------o|
A|o-------------------o|o--5-5-5-5-5-5-5-5--o|o-------------------o|
E|---5-5-5-5-5-5-5-5---|---------------------|---5-5-5-5-5-5-5-5---|

===============================================================================


--------------------------------------------------------------------------------
                               City Has No Heart
--------------------------------------------------------------------------------

Tuning: Standard

Intro
G|-----------------------------------------------------|
D|o---------------------------------------------------o|
A|o-------7-----------------------7-------------------o|
E|----0-0-----0-7---0-5---0---0-0-----0-7---0-5---0----|

G|-----------------------------------------------------|
D|o----------------------------------------7----------o|
A|o-------7----------------------7-----7-9---9-7------o|
E|---0-0-----0-7-9-7-5-7-5---0-0---7-9-----------9-----|

Verse 1
G|----------------------------------------------------------------------|
D|o--------------------------------------------------------------------o|
A|o------------------3-3-3-3-3-3-3-3-------------------------3---3-----o|
E|---3-3-3-3-3-3-3-3-----------------3-3-3-3-3-3-3-3-1---1--------------|

                             Repeat x3
G|------------------------------------|--------------------------------------|
D|o----------------------------------o|--------------------------------------|
A|o--2-2-2-2-2---2---4---2-----------o|---2-2-2-2-2---2/14-14-14-/14-14-14---|
E|---------------------------4---5----|--------------------------------------|

Chorus                                        Repeat x4
G|-----------------------------------------------------|
D|o----------------------------------------7----------o|
A|o-------7----------------------7-----7-9---9-7------o|
E|---0-0-----0-7-9-7-5-7-5---0-0---7-9-----------9-----|

Verse 2
G|----------------------------------------------------------------------|
D|o--------------------------------------------------------------------o|
A|o------------------3-3-3-3-3-3-3-3-------------------------3---3-----o|
E|---3-3-3-3-3-3-3-3-----------------3-3-3-3-3-3-3-3-1---1--------------|

                             Repeat x3
G|------------------------------------|--------------------------------------|
D|o----------------------------------o|--------------------------------------|
A|o--2-2-2-2-2---2---4---2-----------o|---2-2-2-2-2---2/14-14-14-/14-14-14---|
E|---------------------------4---5----|--------------------------------------|

Chorus                                        Repeat x4
G|-----------------------------------------------------|
D|o----------------------------------------7----------o|
A|o-------7----------------------7-----7-9---9-7------o|
E|---0-0-----0-7-9-7-5-7-5---0-0---7-9-----------9-----|

Bridge  Repeat until 2:31             Repeat x3
G|------|----------------|---------------------|------------------------------|
D|------|o--------------o|o-------------------o|------------------------------|
A|------|o----6h7-7-7---o|o--2-2-2-2-2-2-2-2--o|---/14-14-14-14-14-14-14-14---|
E|--0---|----------------|---------------------|------------------------------|

Guitar Solo                                   Repeat x4
G|-----------------------------------------------------|
D|o----------------------------------------7----------o|
A|o-------7----------------------7-----7-9---9-7------o|
E|---0-0-----0-7-9-7-5-7-5---0-0---7-9-----------9-----|

Verse 3
G|----------------------------------------------------------------------|
D|o--------------------------------------------------------------------o|
A|o------------------3-3-3-3-3-3-3-3-------------------------3---3-----o|
E|---3-3-3-3-3-3-3-3-----------------3-3-3-3-3-3-3-3-1---1--------------|

                             Repeat x3
G|------------------------------------|--------------------------------------|
D|o----------------------------------o|--------------------------------------|
A|o--2-2-2-2-2---2---4---2-----------o|---2-2-2-2-2---2/14-14-14-/14-14-14---|
E|---------------------------4---5----|--------------------------------------|

Outro Chorus                           Repeat until end
G|-----------------------------------------------------|
D|o----------------------------------------7----------o|
A|o-------7----------------------7-----7-9---9-7------o|
E|---0-0-----0-7-9-7-5-7-5---0-0---7-9-----------9-----|


===============================================================================


-------------------------------------------------------------------------------
                                Ship Rolls In
-------------------------------------------------------------------------------

Tuning: Standard

Intro
G|---------------------------------------------|
D|---------------------------------------------|
A|----------------5-----------7----------------|
E|-----5----------------------------------5----|

G|-----------------------------------------------------|
D|o-------------------4-4-7-4-----6-6-9-6-7-7---------o|
A|o-------4-4-7-4-5-5---------7-7-------------9-7-----o|
E|----5-5-----------------------------------------9----|

Verse 1                                  Repeat x4
G|------------------------------------------------|
D|o-----------------------------4-7-------6-9----o|
A|o-------4-7-------4-7-4---5-5-------7-7--------o|
E|----5-5-------5-5-------------------------------|

Chorus
G|------------------------------------------------------------|
D|o------7---4-----------9---6-------------------------------o|
A|o--5-----------5---7-----------7-------4-5---------4-5-----o|
E|-----------------------------------5-5-----5---5-5-----5----|

G|--------------------------------|
D|-------7---4--------------------|
A|---------------5---7---7---7----|
E|---5----------------------------|

Verse 2                                  Repeat x4
G|------------------------------------------------|
D|o-----------------------------4-7-------6-9----o|
A|o-------4-7-------4-7-4---5-5-------7-7--------o|
E|----5-5-------5-5-------------------------------|

Chorus
G|------------------------------------------------------------|
D|o------7---4-----------9---6-------------------------------o|
A|o--5-----------5---7-----------7-------4-5---------4-5-----o|
E|-----------------------------------5-5-----5---5-5-----5----|

G|--------------------------------|
D|-------7---4--------------------|
A|---5-----------5---7---7---7----|
E|--------------------------------|

Guitar Solo
G|------------------------------------------------|
D|o-----------------------------4-7-------6-9----o|
A|o-------4-7-------4-7-4---5-5-------7-7--------o|
E|----5-5-------5-5-------------------------------|

G|------------------------------------------------------------|
D|o------7---4-----------9---6-------------------------------o|
A|o--5-----------5---7-----------7-------4-5---------4-5-----o|
E|-----------------------------------5-5-----5---5-5-----5----|

G|--------------------------------|
D|-------7---4--------------------|
A|---5-----------5---7---7---7----|
E|--------------------------------|

Verse 3                                  Repeat x4
G|------------------------------------------------|
D|o-----------------------------4-7-------6-9----o|
A|o-------4-7-------4-7-4---5-5-------7-7--------o|
E|----5-5-------5-5-------------------------------|

Chorus                                               Repeat x4
G|------------------------------------------------------------|
D|o------7---4-----------9---6-------------------------------o|
A|o--5-----------5---7-----------7-------4-5---------4-5-----o|
E|-----------------------------------5-5-----5---5-5-----5----|

G|-----------------------------------------------|
D|-------7---4-----------------------------------|
A|---5-----------5---7---7---7---7---7---7-------|
E|-------------------------------------------5---|


Bass in this song is a bit indistinct in some places, think I've got something close.
===============================================================================


-------------------------------------------------------------------------------
                                Bottle In Front Of Me
-------------------------------------------------------------------------------

Tuning: Standard

Intro
G|------------------------777-------------------7-7----|
D|-----------------------------------------------------|
A|----------5-----------5---------5-----------5--------|
E|---12\0-7---7-5-3-0-7-------0-7---7-5-3-0-7----------|

Verse 1
G|----------------------777-------------------7-7----|
D|o-------------------------------------------------o|
A|o-------5-----------5---------5-----------5-------o|
E|----0-7---7-5-3-0-7-------0-7---7-5-3-0-7----------|

Chorus
G|-----------------------------------------------------------------------|
D|o-----------------------------------------------------3---------------o|
A|o-------------------3---3-3-3-----------------------5---5-3---3/12\---o|
E|----5---5-5-5-5-5-5-----------0-2-3-5---5-5-5-5-5-5--------------------|

Verse 2
G|----------------------777-------------------7-7----|
D|o-------------------------------------------------o|
A|o-------5-----------5---------5-----------5-------o|
E|----0-7---7-5-3-0-7-------0-7---7-5-3-0-7----------|

Chorus
G|-----------------------------------------------------------------------|
D|o-----------------------------------------------------3---------------o|
A|o-------------------3---3-3-3-----------------------5---5-3---3/12\---o|
E|----5---5-5-5-5-5-5-----------0-2-3-5---5-5-5-5-5-5--------------------|

G|---------------------777-------------------7-7---|
D|-------------------------------------------------|
A|-------5-----------5---------5-----------5-------|
E|---0-7---7-5-3-0-7-------0-7---7-5-3-0-7---------|

G|-----------------------------------------------------------------------|
D|o-------7-7-7-5---------------------5---5---5-------5---5---5---------o|
A|o---------------7-5-3-----------------7---7---5-6-7---7---7---5-6-7---o|
E|----5------------------------------------------------------------------|

Guitar Solo     Repeat x8                 Repeat x4 
G|-----------------------|-------------------------|
D|o---------------------o|o-----------------------o|
A|o---------------------o|o---7---7-7h9p7-5---5---o|
E|----5-3-5-3-5-0-1-2----|------------------5------|

                       Repeat x5
G|------------------------------|-------7---------------------|
D|o----------------------------o|-----9-----------------------|
A|o-------5--------------------o|-----------------------------|
E|----0-7---7-5-3-0-0-0-/12\----|---0-----7-530---0-0-0-/12\--|

Chorus
G|-----------------------------------------------------------------------|
D|o-----------------------------------------------------3---------------o|
A|o-------------------3---3-3-3-----------------------5---5-3---3/12\---o|
E|----5---5-5-5-5-5-5-----------0-2-3-5---5-5-5-5-5-5--------------------|

Outro
G|-----------------------7h9--------------------7h9-------|
D|--------------------------------------------------9p7---|
A|-------5------------------------5-----------------------|
E|---0-7---7-5-3-0-0-0--------0-7---7-5-3-0-0-0-----------|

G|------------------------------------------------|
D|------------------------------------------------|
A|-------5------------------------5---------------|
E|---0-7---7-5-3-0-0-0-/12\---0-7---7-5-3-0-0-0---|


| /  slide up
| \  slide down
| h  hammer-on
| p  pull-off
| ~  vibrato
| +  harmonic
| x  Mute note
===============================================================================



Добавлено: 15.05.2016
Другие материалы по этой песне:
  • Аккорды и текст

Страница создана 15.05.2016
http://primanota.ru/faster-pussycat/faster-pussycat-album-chords.htm
Привет, Гость.
Предлагаем пройти революционный курс по гитаре.
Подарок от PrimaNota.Ru, забирай!