PrimaNota.ru - самый крупный в мире бесплатный архив песенных текстов, аккордов, табулатур и нот


Fastball - Vampires - аккорды и текст, таба, видео

Регистрация Запомнить меня
Войти через:  Facebook Google Twitter Vk Yandex Mail.ru

Fastball - Vampires - аккорды и текст, таба, видео

Печатать
Просмотров: 139
Vampires
Fastball
		   Fastball
“Vampires”
off The Harsh Light Of Day
Tabbed by Greg Timpanaro



Intro (reverb)

e-----1-----------------------3---------
B-----3-------1-------1-------1---------
G---2---2---0---0---0---0---0-----------
D-0-------2-------3-------2-------------
A---------------------------------------
E---------------------------------------

e-----1-----------------------3p1-------
B-----3-------1-------1-------1p1-------
G---2---2---0---0---0---0---0-----------
D-0-------2-------3-------2-------------
A---------------------------------------
E---------------------------------------


Verse (play these chords then do the picking)

e-1--5--1----8-----8----(7)7-----7------
B-3--3--3------8-----8-------7----------
G-2--3--2--7-----7-----7-------7--------
D-0--5--0-------------------------------
A---------------------------------------
E---------------------------------------

Chorus chords

e-5--5--7-------------------------------
B-6--6--8-------------------------------
G-7--5--7-------------------------------
D-7--7--9-------------------------------
A-5-------------------------------------
E---------------------------------------




Solo arranged for guitar

e----------------------------------------
B----------------------------------------
G-10-9-7-9-7-9-7-10/14--14h15--14/12-----
D----------------------------------------
A----------------------------------------
E----------------------------------------

e----------------------------------------
B--------------/13-12--------------------
G-10-9-7-9-7-9---------------------------
D----------------------------------------
A----------------------------------------
E----------------------------------------




The only thing I didn't tab was the pre-chorus     
Добавлено: 23.09.2013
Другие материалы по этой песне:

Страница создана 16.03.2012
http://primanota.ru/fastball/vampires-chords.htm
Привет, Гость.
Предлагаем пройти революционный курс по гитаре.
Подарок от PrimaNota.Ru, забирай!