PrimaNota.ru - самый крупный в мире бесплатный архив песенных текстов, аккордов, табулатур и нот


Fastball - Freeloader Freddy - текст песни, таба, видео

Регистрация Запомнить меня
Войти через:  Facebook Google Twitter Vk Yandex Mail.ru

Fastball - Freeloader Freddy - текст песни, таба, видео

Печатать
Просмотров: 149
"Freeloader Freddy" by Fastball
Submitted by: CopperForever@aol.com
Standard Tuning
 
Verse:
 A5   D5   A5   D5   B5   E5   A5
------------------------------------
------------------------------------
------7777------7777-4444-----------
-7777-7777-7777-7777-4444-2222-7777-
-7777-5555-7777-5555-2222-2222-7777-
-5555------5555-----------0000-7777-
 
Intro riff:
---------------------------------------
----------------------------11bp9----9-
-9b-9b-9b-9-7-9b-11b-9b-11b-------11---
---------------------------------------
---------------------------------------
---------------------------------------
 
Chorus:
 D       F           C           D               F    
-------------------------------------------------------------
-------------------------------------------------------------
-7-7-7-7-10-10-10-10-------------7-7-7-7-7-7-7-7-10-10-10-10-
-7-7-7-7-10-10-10-10-10-10-10-10-7-7-7-7-7-7-7-7-10-10-10-10-
-5-5-5-5-8--8--8--8--10-10-10-10-5-5-5-5-5-5-5-5-8--8--8--8--
---------------------8--8--8--8------------------------------
 
 C        B BbA
----------------
----------------
----------------
-10-10-10-9-8-7-
-10-10-10-9-8-7-
-8--8--8--7-6-5-
 
Solo:
--------------------------12b-12-----16b-16b-16b-16b-16----
-12b-12-12b-12-10-12-10~/--------14/--------------------18-
-----------------------------------------------------------
-----------------------------------------------------------
-----------------------------------------------------------
-----------------------------------------------------------
 
-16b-16b-16b-16b-16------------------------------
--------------------18---------------------------
-----------------------16b-16b-16-16b-16-14h16p~-
-------------------------------------------------
-------------------------------------------------
-------------------------------------------------
 
2nd solo (outro):
Play the intro riff, and then this:
------------------------------------------16b-16b-16b-16b-16----
-11-13-15-13-11-13-15-13-11-16b-16b-16-14--------------------18-
----------------------------------------------------------------
----------------------------------------------------------------
----------------------------------------------------------------
----------------------------------------------------------------
 
-----------------------------------------------------------------------
-18-16--------15-17----------------------------------------------------
-------18/-18-------18-16-18-16----16-------------14-------------------
--------------------------------18----18-16-14h16----16-14--14---------
----------------------------------------------------------14--16-14-12-
-----------------------------------------------------------------------

     
Добавлено: 25.09.2013
Другие материалы по этой песне:
  • Аккорды и текст

Страница создана 31.03.2012
http://primanota.ru/fastball/freeloader-freddy-chords.htm
Привет, Гость.
Предлагаем пройти революционный курс по гитаре.
Подарок от PrimaNota.Ru, забирай!