PrimaNota.ru - самый крупный в мире бесплатный архив песенных текстов, аккордов, табулатур и нот


Fastball - Boomerang - текст песни, таба, видео

Регистрация Запомнить меня
Войти через:  Facebook Google Twitter Vk Yandex Mail.ru

Fastball - Boomerang - текст песни, таба, видео

Печатать
Просмотров: 99
"Boomerang" by Fastball
Submitted by: Copperforever@aol.com
Standard Tuning
 
Intro: (this chord also rings over all of the bass-only verses)
F#
-------------------------
-------------------------
-11-11-11-11-11-11-11-11-
-11-11-11-11-11-11-11-11-
--9--9--9--9--9--9--9--9-

Verse:
F# A B   E  F# B
-----------------
-----------------
---2-4---9--11---
-4-2-4---9--11-9-
-4-0-2---7---9-9-
-2-------------7-

Chorus: (*play note 8 times)
 D     B
-------------
-------------
-7--7--4--4--
-7--7--4--4--
-5*-5*-2*-2*-
-------------
 
Variation on the verse:
 F#       B        E        B
-------------------------------------
-------------------------------------
----------44444444-99999999----------
-44444444-44444344-99999999-99999999-
-44444444-22222222-77777777-99999999-
-22222222-------------------77777777-


Solo:
----------------------------------
----------------------------------
----------------------------------
-------6-8-------6-8---------6-9-8
-9-9-9-----9-9-9-----9-9-9-9------ X2
----------------------------------

(Iâ^À^Ùm not sure about this second part, but if you mess around with
these notes, you should have it)
-------------------------------------------------------
----------------------------------------------15p13----
-11-11-11-11-11-11-11-11-13-13-13-13-15-15-15-------15-
-------------------------------------------------------
-------------------------------------------------------
-------------------------------------------------------

-----------------------------------------------------------------------
-------------------------13b-11----------------------------------------
-11-11-11-11-11-11-11-11--------13p11----11-13-11----11----------------
--------------------------------------13----------13----13-11---11-----
--------------------------------------------------------------13--13-9-
-----------------------------------------------------------------------
 
 

     
Добавлено: 12.06.2013
Другие материалы по этой песне:
  • Аккорды и текст

Страница создана 21.06.2012
http://primanota.ru/fastball/boomerang-chords.htm
Привет, Гость.
Предлагаем пройти революционный курс по гитаре.
Подарок от PrimaNota.Ru, забирай!