PrimaNota.ru - самый крупный в мире бесплатный архив песенных текстов, аккордов, табулатур и нот


Faspitch - Mouthful - таба, видео

Регистрация Запомнить меня
Войти через:  Facebook Google Twitter Vk Yandex Mail.ru

Faspitch - Mouthful - таба, видео

Печатать
Просмотров: 77
Author/Artist: Faspitch
Title: Mouthful
Album: Untitled Album
Year: 2011
Tabbed by: Lemuel Caparaz
Tuning: Drop CTEMPO: 102 BPM


INTRO

I.

Guitar 1
 4/4
     S S S S S S S S S S S S S S S S     H         S S S   E   E.
D||-----------------------------------|----------------------------|
A||-----------------------------------|----------------------------|
F||--7-7-7-7-7-7-7-7-7-7-7-7-7-7-7-7--|------------------------17--|
C||--5-5-5-5-5-5-5-5-5-5-5-5-5-5-5-5--|------------x-x-x-----------|
G||--5-5-5-5-5-5-5-5-5-5-5-5-5-5-5-5--|------------x-x-x-------15--|
C||--5-5-5-5-5-5-5-5-5-5-5-5-5-5-5-5--|------------x-x-x-----------|

Guitar 2
 4/4
     S  S  S  S  S  S  S  S  S  S  S  S  S  S  S  S      H         S S S   E   E.
D||---------------------------------------------------|----------------------------|
A||---------------------------------------------------|----------------------------|
F||--10-10-10-10-10-10-10-10-10-10-10-10-10-10-10-10--|------------------------17--|
C||---------------------------------------------------|------------x-x-x-----------|
G||--8--8--8--8--8--8--8--8--8--8--8--8--8--8--8--8---|------------x-x-x-------15--|
C||---------------------------------------------------|------------x-x-x-----------|


Guitar 1
                                                                   P.M.-|
     S S S S S S S S S S S S S S S S     E   e. e.   H     E  e  S  E S   e.  Q  S
D||-----------------------------------|-----------------|---------------------------||
A||-----------------------------------|-----------------|---------------------------||
F||--7-7-7-7-7-7-7-7-7-7-7-7-7-7-7-7--|-----------------|---------------------------||
C||--5-5-5-5-5-5-5-5-5-5-5-5-5-5-5-5--|------1--1-------|-----1-----1-1---1---------||
G||--5-5-5-5-5-5-5-5-5-5-5-5-5-5-5-5--|------1--1-------|-----1-----1-1---1---------||
C||--5-5-5-5-5-5-5-5-5-5-5-5-5-5-5-5--|------1--1-------|-----1-----1-1---1---------||

Guitar 2
                                                                                   P.M.-|
     S  S  S  S  S  S  S  S  S  S  S  S  S  S  S  S      E   e. e.   H     E  e  S  E S   e.  Q  S
D||---------------------------------------------------|-----------------|-------------------------||
A||--11-11-11-11-11-11-11-11-11-11-11-11-11-11-11-11--|-----------------|-------------------------||
F||--10-10-10-10-10-10-10-10-10-10-10-10-10-10-10-10--|-----------------|-------------------------||
C||---------------------------------------------------|------1--1-------|-----1-----1-1---1-------||
G||--8--8--8--8--8--8--8--8--8--8--8--8--8--8--8--8---|------1--1-------|-----1-----1-1---1-------||
C||---------------------------------------------------|------1--1-------|-----1-----1-1---1-------||

II.

Guitar 1

      S S S S S S S S S S S S S S S S     S S S S S S S S S S S S S S S S
D||------------------------------------|-----------------------------------|
A||o-----------------------------------|-----------------------------------|
F||------------------------------------|-----------------------------------|
C||---5-5-5-5-5-5-5-5-5-5-5-5-5-5-5-5--|--8-8-8-8-8-8-8-8-8-8-8-8-8-8-8-8--|
G||o--5-5-5-5-5-5-5-5-5-5-5-5-5-5-5-5--|--8-8-8-8-8-8-8-8-8-8-8-8-8-8-8-8--|
C||---5-5-5-5-5-5-5-5-5-5-5-5-5-5-5-5--|--8-8-8-8-8-8-8-8-8-8-8-8-8-8-8-8--|

[1.---------------------------------------------------------------]
    P.M.-|     P.M.----|     P.M.--------|     P.M.---|     P.M.-|
     S E   S E  S E   E  S E  S S     S E  S E  S E  E  S E  S S S S S S S
D|----------------------------------|-----------------------------|
A|----------------------------------|----------------------------o|
F|----------------------------------|-----------------------------|
C|---1-1---1-1--1-1---1--1-1--1-1---|---1--1-1--1-1--1--1-1--1-1--|
G|---1-1---1-1--1-1---1--1-1--1-1---|---1--1-1--1-1--1--1-1--1-1-o|
C|---1-1---1-1--1-1---1--1-1--1-1---|---1--1-1--1-1--1--1-1--1-1--|

[2.---------------------------------------------------------------]
    S e  S E  S S S e S E S S     S e  S E  S S S e S E S S
D|-----------------------------|-----------------------------||
A|-----------------------------|-----------------------------||
F|----8--8-8--7-7---8-8-8-7-7--|----8--8-8--7-7---8-8-8-7-7--||
C|----8--8-8--8-8---8-8-8-8-8--|----8--8-8--8-8---8-8-8-8-8--||
G|----6--6-6--6-6---6-6-6-6-6--|----6--6-6--6-6---6-6-6-6-6--||
C|-----------------------------|-----------------------------||


Guitar 2

      S S S S S S S S S S S S S S S S     S S S S S S S S S S S S S S S S
D||------------------------------------|-----------------------------------|
A||o--------------------6-6-6----------|--------------------8-8-8-6-6------|
F||---7-7-7-5-5-5-7-7-7-------7-7-5-5--|--------5-5-5-7-7-7-----------7-7--|
C||------------------------------------|--8-8-8----------------------------|
G||o-----------------------------------|-----------------------------------|
C||------------------------------------|-----------------------------------|

    S S S S S S S S S S S S S S S S     S S S S S S S S S S S S S S S S
D|-----------------------------------|--6-6-6-5-5-5----------------------|
A|--8-8-8-------6-6-6----------------|--------------6-6-8-8-8------------|
F|--------7-7-7-------7-7-7-5-5-7-7--|------------------------7-7-7-5-5--|
C|-----------------------------------|-----------------------------------|
G|-----------------------------------|-----------------------------------|
C|-----------------------------------|-----------------------------------|

    S S S S S S S S S S S S S S S S     S S S S S S S S S S S S S S S S
D|-----------------------------------|-----------------------------------|
A|--------------------6-6-6----------|--------------------8-8-8-6-6------|
F|--------5-5-5-7-7-7-------7-7-5-5--|--------5-5-5-7-7-7-----------7-7--|
C|--5-5-5----------------------------|--8-8-8----------------------------|
G|-----------------------------------|-----------------------------------|
C|-----------------------------------|-----------------------------------|

   S S S S  S  S  S  S  S  S  S  S  S  S  S  S     S  S  S  S  S  S  S  S  S  S  S  S  S  S  S  S
D|-----------------------------------------------|------------------------------------------------||
A|-8-8-8-10-10-10-11-11-11-10-10-10--------------|-10-10-10-11-11-11-13-13-13-11-11-11-10-10------||
F|----------------------------------10-10-10-10--|-------------------------------------------10-10||
C|-----------------------------------------------|------------------------------------------------||
G|-----------------------------------------------|------------------------------------------------||
C|-----------------------------------------------|------------------------------------------------||

III.

Guitar 1 (Rest until REFRAIN, busy with electronics and turntable, perhaps)

Guitar 2

     W      H..  E      E E E E E E E E     E E E E E E E E
D||------|----------||------5---0--------|------6------------||
A||------|----------||--6-----6---6------|--6-----6-8-6------||
F||------|-------7--||----7---------5-7--|----7-----------7--||
C||------|----------||-------------------|-------------------||
G||------|----------||-------------------|-------------------||
C||------|----------||-------------------|-------------------||


VERSE

Guitar 2

     E E E E E E E E     E E E E E E E E     E E E E E E E E     E E E E E E E E
D||------5---0--------|------6------------|------5---0--------|------6---------8--|
A||--6-----6---6------|--6-----6-8-6------|--6-----6---6------|--6-----6-8-6------|
F||----7---------5-7--|----7---------5-7--|----7---------5-7--|----7---------5----|
C||-------------------|-------------------|-------------------|-------------------|
G||-------------------|-------------------|-------------------|-------------------|
C||-------------------|-------------------|-------------------|-------------------|

    E E E E E E E E     H..          E      E E E E E E E E     E E E E E E Q
D|--8-6-6-5-5--------|---------------8---|--8-6-6-5-5--------|-------------------||
A|------------6-6-8--|--8----------------|------------6-6-8--|--8---------6-6----||
F|-------------------|-------------------|-------------------|----7-5-5-7--------||
C|-------------------|-------------------|-------------------|-------------------||
G|-------------------|-------------------|-------------------|-------------------||
C|-------------------|-------------------|-------------------|-------------------||


REFRAIN

I. 

Guitar 1 & 2

     E E E S S E E E E     E E E S S E E E E     E E E S S E E E E     E E E E  E  E E E
D||---------------------|---------------------|---------------------|---------------------|
A||---------------------|---------------------|---------------------|---------------------|
F||--------------8-7----|---------------------|--------------5-7----|--------10-10-5-5----|
C||--5-5---x-x-------5--|--5-5---x-x---3-3-5--|--5-5---x-x-------5--|--5-5-------------1--|
G||--5-5---x-x---6-5-5--|--5-5---x-x---3-3-5--|--5-5---x-x---6-5-5--|--5-5---8--8--3-3-1--|
C||--5-5---x-x-------5--|--5-5---x-x---3-3-5--|--5-5---x-x-------5--|--5-5-------------1--|

    E E E S S E E E E     E E E S S E  S E S S S     E E E S S E E E E
D|---------------------|--------------------------|---------------------|
A|---------------------|--------------------------|---------------------|
F|---------------------|------------10---5---3-5--|---------------------|
C|--1-1---x-x---3-3-1--|--1-1---x-x----x---x------|--1-1---x-x---3-3-1--|
G|--1-1---x-x---3-3-1--|--1-1---x-x-8--x-3-x-1-3--|--1-1---x-x---3-3-1--|
C|--1-1---x-x---3-3-1--|--1-1---x-x----x---x------|--1-1---x-x---3-3-1--|

         P.M.-|   P.M.  P.M.
    E E    S S  E  S  E  S  E
D|-----------------------------||
A|-----------------------------||
F|-----------------------------||
C|--1-1----1-1--3--1--3--1--3--||
G|--1-1----1-1--3--1--3--1--3--||
C|--1-1----1-1--3--1--3--1--3--||

II.

Guitar 1
     Q.    Q.    Q       Q.     Q.    Q       Q.    Q.    E.  S
D||-------------------|--------------------|---------------------|
A||o------------------|--------------------|---------------------|
F||-------------------|--------------------|---------------------|
C||--5-----7-----+----|--10-----8-----3----|--5-----3-----+---1--|
G||o-5-----7-----+----|--10-----8-----3----|--5-----3-----+---1--|
C||--5-----7-----+----|--10-----8-----3----|--5-----3-----+---1--|

[1.----------------------------------]
    S S S S S S S S S S S S S S S S
D|-----------------------------------|
A|-----------------------------------|
F|-----------------------------------|
C|----1---1-3-3---1---1---1-3-3-2-2--|
G|----1---1-----3-1---1---1----------|
C|----1---1-------1---1---1----------|

[2.----------------------]
    Q    E.  e.  e.  e.
D|----------------------||
A|---------------------o||
F|----------------------||
C|-(1)-------1---1------||
G|-(1)-------1---1-----o||
C|-(1)-------1---1------||


Guitar 2
     Q.    Q.    Q       Q.     Q.    Q
D||-------------------|--------------------|
A||-------------------|--------------------|
F||-------------------|--------------------|
C||--5-----7-----+----|--10-----8-----3----|
G||--5-----7-----+----|--10-----8-----3----|
C||--5-----7-----+----|--10-----8-----3----|

    E  E  E  E  E  g E  E  E    S S S S S S S S S S S S S S S S
D|---------------------------|-----------------------------------|
A|---------------------------|-----------------------------------|
F|--3-----3--2--3--3s5--3----|-----------------------------------|
C|-----5---------------------|----1---1-3-3---1---1---1-3-3-2-2--|
G|---------------------------|----1---1-----3-1---1---1----------|
C|---------------------------|----1---1-------1---1---1----------|

    Q.    Q.    Q       Q.     Q.    Q      g  Q.     Q.   E. S
D|-------------------|--------------------|----------------------|
A|-------------------|--16-----15----13---|-13s15-----13---------|
F|--14----15----+----|--------------------|----------------------|
C|-------------------|--------------------|-------------------1--|
G|-------------------|--------------------|-------------------1--|
C|-------------------|--------------------|-------------------1--|

     Q    E.  e.  e. S  e
D|-------------------------||
A|----------------------6--||
F|-------------------------||
C|-(1)-------1---1---------||
G|-(1)-------1---1---------||
C|-(1)-------1---1---------||


CHORUS

Guitar 1

      S S S S S S S S S S S S S S S S     S S S S S S S S S S S S S S S S
D||------------------------------------|-----------------------------------|
A||o-----------------------------------|-----------------------------------|
F||------------------------------------|-----------------------------------|
C||---5-5-5-5-5-5-5-5-5-5-5-5-5-5-5-5--|--8-8-8-8-8-8-8-8-8-8-8-8-8-8-8-8--|
G||o--5-5-5-5-5-5-5-5-5-5-5-5-5-5-5-5--|--8-8-8-8-8-8-8-8-8-8-8-8-8-8-8-8--|
C||---5-5-5-5-5-5-5-5-5-5-5-5-5-5-5-5--|--8-8-8-8-8-8-8-8-8-8-8-8-8-8-8-8--|

[1.--------------------------------------------------]
    S S e  S e  E. E S S S S    E  e  S e  E. E E E
D|----------------------------|----------------------|
A|----------------------------|----------------------|
F|----------------------------|----------------------|
C|----1-1--1-3--1--1-5-5-5-5--|----5--5-7--3--3-3-3--|
G|----1-1--1-3--1--1----------|----5--5-7--3--3-3-3--|
C|----1-1--1-3--1--1----------|----5--5-7--3--3-3-3--|

[2.-----------------------------------------------------]
                                 3/4
     S S E  E  E  S S E  E  E      E.   E.   E  S  E.
D|------------------------------||----------------------||
A|------------------------------||---------------------o||
F|------------------------------||----------------------||
C|---3-5-5--5--5--5-3-3--3--3---||--7----7-------3------||
G|---3-5-5--5--5--5-3-3--3--3---||--7----7-------------o||
C|---3-5-5--5--5--5-3-3--3--3---||--7----7----1-----1---||

 4/4
     H..    S  S        Q.     S  S  E   E   S S S S
D|------------------|----------------------------------||
A|---10-----10-10---|---10-----10-10-10--10--x-x-x-x---||
F|---9------9--9----|---9------9--9--9---9---x-x-x-x---||
C|---8------8--8----|---8------8--8--8---8---x-x-x-x---||
G|---8------8--8----|---8------8--8--8---8---x-x-x-x---||
C|---8------8--8----|---8------8--8--8---8---x-x-x-x---||


Guitar 2
(I'm not quite sure about this as I can hardly hear the overdub)
     E E E E E E E E     E E E E E E E E      H.    Q     E E E E E E E E
D||------6-------6----|------8-------8----|--(8)-------|------------6-6----|
A||----6---6---6---6--|----6---6---6---6--|--(6)-------|--------6-6-----6--|
F||--5-------5--------|--5-------5--------|--(5)-------|----7-7------------|
C||-------------------|-------------------|------------|-------------------|
G||-------------------|-------------------|------------|-------------------|
C||-------------------|-------------------|------------|-------------------|

                                                              3/4
    E E E E E E E E     E E E E E E E E     E E E E E E E E      E.  E.  E  S  E.
D|------6-------6----|------8-------8----|-------------------|---------------------||
A|----6---6---6---6--|----6---6---6---6--|-------------------|---15---------10-----||
F|--5-------5--------|--5-------5--------|--7-7-7-7-7S5-5-5--|-------15--10----10--||
C|-------------------|-------------------|-------------------|---------------------||
G|-------------------|-------------------|-------------------|---------------------||
C|-------------------|-------------------|-------------------|---------------------||


 4/4
     H..    S  S        Q.     S  S  E   E    S S S S
D|------------------|-----------------------------------||
A|------------------|-------------------------x-x-x-x---||
F|---12-----9--9----|---9------9--9--9---9----x-x-x-x---||
C|----------10-10---|---10-----10-10-10--10---x-x-x-x---||
G|----------8--8----|---8------8--8--8---8----x-x-x-x---||
C|------------------|-------------------------x-x-x-x---||


VERSE

Guitar 1

     E E E S S E E E E     E E E S S E E E E     E E E S S E E E E     E E E E  E  E E E
D||---------------------|---------------------|---------------------|---------------------|
A||---------------------|---------------------|---------------------|---------------------|
F||--------------8-7----|---------------------|--------------8-7----|--------10-10-5-5----|
C||--5-5---x-x-------5--|--5-5---x-x---3-3-5--|--5-5---x-x-------5--|--5-5----------------|
G||--5-5---x-x---6-5-5--|--5-5---x-x---3-3-5--|--5-5---x-x---6-5-5--|--5-5---8--8--3-3-5--|
C||--5-5---x-x-------5--|--5-5---x-x---3-3-5--|--5-5---x-x-------5--|--5-5-------------5--|

                                                                            P.M. P.M. P.M.
    E E E S S E E E E     E E E S S E E E E    E E E S S E E E E      E E E S S E  S E  S S S
D|---------------------|---------------------|---------------------|---------------------------||
A|---------------------|---------------------|---------------------|---------------------------||
F|---------------------|---------------------|---------------------|---------------------------||
C|--1-1---x-x---3-3-1--|--1-1---x-x---0-0-1--|--1-1---x-x---3-3-1--|--1-1---1-1-3--1-3--1-3-3--||
G|--1-1---x-x---3-3-1--|--1-1---x-x---0-0-1--|--1-1---x-x---3-3-1--|--1-1---1-1-3--1-3--1-3-3--||
C|--1-1---x-x---3-3-1--|--1-1---x-x---0-0-1--|--1-1---x-x---3-3-1--|--1-1---1-1-3--1-3--1-3-3--||

 2/4
     W    
D|-------------------||
A|-------------------||
F|-------------------||
C|-------------------||
G|-------------------||
C|-------------------||


Guitar 2

  P.M.----------------------------------------------------------------------------|
     E E E E E E E E     E E E E E E E E     E E E E E E E E     E E E E E E E E
D||-------------------|-------------------|-------------------|-------------------|
A||-------------------|-------------------|-------------------|-------------------|
F||--7-7-7-5-5-5-5-3--|--3-3-3-2-2-2------|--------3-3-3------|--------5-5-3-3-3--|
C||-------------------|--------------3-3--|--5-5-5-------3-3--|--5-5-5------------|
G||-------------------|-------------------|-------------------|-------------------|
C||-------------------|-------------------|-------------------|-------------------|

  P.M.------------------------------------|
     E E E E E E E E     E E E E E E E E     E E E E E E E E     E  E  E  E  E  E E  E
D||-------------------|-------------------|-------------------|--------------------------||
A||-------------------|--6-6-6------------|--8---8---8---8----|--11----11----10-8--------||
F||--7-7-7-5-5-5-5-5--|--------7-7-7-7-7--|----7---7---7---7--|-----12----12------10-10--||
C||-------------------|-------------------|-------------------|--------------------------||
G||-------------------|-------------------|-------------------|--------------------------||
C||-------------------|-------------------|-------------------|--------------------------||

 2/4
     W    
D|-------------------||
A|-------------------||
F|-------------------||
C|-------------------||
G|-------------------||
C|-------------------||


Repeat REFRAIN II but end with:

     H.         Q
D|-------------------||
A|-------------------||
F|-------------------||
C|--(1)--------------||
G|--(1)--------------||
C|--(1)--------------||

Repeat CHORUS but end with:

Guitar 1
                                                  [TREMOLLO EFFECT]
                                 2/4              4/4
     S S E  E  E  S S E  E  E       E.   E.   E       W
D|------------------------------||---------------||---6--------||
A|------------------------------||---------------||---8--------||
F|------------------------------||---------------||---8--------||
C|---3-5-5--5--5--5-3-3--3--3---||--7----7-------||---8--------||
G|---3-5-5--5--5--5-3-3--3--3---||--7----7-------||---6--------||
C|---3-5-5--5--5--5-3-3--3--3---||--7----7----1--||------------||

Guitar 2
                     2/4              4/4
    E E E E E E E E      E.  E.  E       W
D|-------------------|---------------||---------------||
A|-------------------|---15----------||---------------||
F|--7-7-7-7-7S5-5-5--|-------15--10--||--12-----------||
C|-------------------|---------------||---------------||
G|-------------------|---------------||---------------||
C|-------------------|---------------||---------------||


BRIDGE

Guitar 1

     S E. Q   S E  Q       S E. Q   S E  Q      S  S S S Q   S S S S Q      S  S S S E S S S E. S E.
D||---------------------|-------------------|---------------------------|--------------------------|
A||---------------------|-------------------|---------------------------|--------------------------|
F||---------------------|-------------------|---------------------------|--------------------------|
C||--1-1--1---1-1--1----|--3-3--3---3-3--3--|--(3)----------------------|--------------------------|
G||--1-1--1---1-1--1----|--3-3--3---3-3--3--|--(3)----------------------|--------------------------|
C||--1-1--1---1-1--1----|--3-3--3---3-3--3--|--(3)-6-5-3-5---+-6-5-3-5--|--(5)-6-5-3-5-5-5-3-5--3-5|

    S E. Q   S E  Q       S E. Q   S S S S S S S S     E E E Q.   S S E     Q.    Q.   Q
D|---------------------|----------------------------|--------------------|----------------|
A|---------------------|----------------------------|--------------------|----------------|
F|---------------------|----------------------------|--------------------|----------------|
C|--1-1--1---1-1--1----|--3-3--3---x-x-x-x-x-x-x-x--|--5-5-5-7----x-x----|--10----8----3--|
G|--1-1--1---1-1--1----|--3-3--3---x-x-x-x-x-x-x-x--|--5-5-5-7----x-x----|--10----8----3--|
C|--1-1--1---1-1--1----|--3-3--3---x-x-x-x-x-x-x-x--|--5-5-5-7----x-x----|--10----8----3--|

    Q.    Q.    Q         E  E  E  E  E    Q.
D|---------------------|-----------------------||
A|---------------------|-----------------------||
F|---------------------|-----------------------||
C|--5-----3-----+------|--1--1-----3--3--------||
G|--5-----3-----+------|--1--1-----3--3--------||
C|--5-----3-----+------|--1--1-----3--3--------||


Guitar 2

     W                     W                    S  S S S Q   S S S S Q      S  S S S E S S S E. S E.
D||--------------------|--------------------|---------------------------|--------------------------|
A||--------------------|--------------------|---------------------------|--------------------------|
F||--12----------------|--14----------------|---------------------------|--------------------------|
C||--------------------|--------------------|---------------------------|--------------------------|
G||--10----------------|--12----------------|---------------------------|--------------------------|
C||--------------------|--------------------|------6-5-3-5---+-6-5-3-5--|--(5)-6-5-3-5-5-5-3-5--3-5|

     W                    H       S S S S S S S S     E E E Q.   S S E     Q.    Q.   Q
D||--------------------|---------------------------|--------------------|----------------|
A||--------------------|---------------------------|--------------------|----------------|
F||--12----------------|--10------x-x-x-x-x-x-x-x--|--------------------|----------------|
C||--------------------|----------x-x-x-x-x-x-x-x--|--5-5-5-7----x-x----|--10----8----3--|
G||--10----------------|--8-------x-x-x-x-x-x-x-x--|--5-5-5-7----x-x----|--10----8----3--|
C||--------------------|---------------------------|--5-5-5-7----x-x----|--10----8----3--|

    E  E  E  E  E  g E  E  E    E  E  E  E  E  Q    E
D|---------------------------|--------------------------||
A|---------------------------|----------------------6---||
F|--3-----3--2--3--3s5--3----|--------------------------||
C|-----5---------------------|--1--1-----3--3-----------||
G|---------------------------|--1--1-----3--3-----------||
C|---------------------------|--1--1-----3--3-----------||


Repeat CHORUS

Repeat INTRO II


OUTRO

Guitar 1 & 2

     S E. S Q    S E S S E     S E. S Q    S E S S E 
D||-------------------------|-------------------------|
A||o------------------------|-------------------------|
F||-------------------------|-------------------------|
C||--3----3------3---3------|--3----3------3---3------|
G||o------------------------|-------------------------|
C||----0----0------0---1-1--|----0----0------0---1-1--|

     S E. S Q    S E S S E     S E. S Q    S E S S E 
D|-------------------------|-------------------------||
A|-------------------------|------------------------o||
F|-------------------------|-------------------------||
C|--3----3------3---3------|--3----3------3---3------||
G|-------------------------|------------------------o||
C|----0----0------0---1-1--|----0----0------0---1-1--||

     S E. S E. S E. S E.
D||----------------------|
A||----------------------|
F||----------------------|
C||--3----3----3----3----|
G||----------------------|
C||----1----1----1----1--|


Guitar 1

     S S E   S S E   E.   E.   E      W 
D||-------------------------------|----------------------*|
A||-------------------------------|----------------------*|
F||------------------10---5----7--|--(7)-----------------*|
C||--3-------3-----------------7--|--(7)-----------------*|
G||------------------8----3----5--|--(5)-----------------*|
C||----1-1-----1-1-------------5--|--(5)-----------------*|


Guitar 2

     S S E   S S E   E.   E.   E      W 
D||-------------------------------|----------------------*|
A||-------------------------------|----------------------*|
F||-------------------------------|----------------------*|
C||--3-------3-------3----7----5--|--(5)-----------------*|
G||----------------------------5--|--(5)-----------------*|
C||----1-1-----1-1-------------5--|--(5)-----------------*|


-END-


Duration Legend
---------------
W - whole;
H - half;
Q - quarter;
E - 8th;
S - 16th;
T - 32nd;
X - 64th;
a - acciaccatura
+ - note tied to previous;
. - note dotted;
.. - note double dotted
Uncapitalized letters represent notes that are staccato (1/2 duration)
Irregular groupings are notated above the duration line
Duration letters will always appear directly above the note/fret number it represents the
duration for.  Duration letters with no fret number below them represent rests.  Multi-
bar rests are notated in the form Wxn, where n is the number of bars to rest for.  Low
melody durations appear below the staff

Tablature Legend
----------------
 h   - hammer-on
 p   - pull-off
 b   - bend
 pb  - pre-bend
 r   - bend release (if no number after the r, then release immediately)
 /\  - slide into or out of (from/to "nowhere")
 s   - legato slide
 S   - shift slide
 g   - grace note
  - natural harmonic
[n]  - artificial harmonic
n(n) - tapped harmonic
 ~   - vibrato
 tr  - trill
 T   - tap
 TP  - trem. picking
 PM  - palm muting
\n/  - tremolo bar dip; n = amount to dip
 \n  - tremolo bar down
 n/  - tremolo bar up
/n\  - tremolo bar inverted dip
 =   - hold bend; also acts as connecting device for hammers/pulls
 <>  - volume swell (louder/softer)
 x   - on rhythm slash represents muted slash
 o   - on rhythm slash represents single note slash

Misc Legend
-----------
 |  - bar
||  - double bar
||o - repeat start
o|| - repeat end
*|  - double bar (ending)
 :  - bar (freetime)
 $  - Segno
 &  - Coda

Tempo markers -  = BPM(8/16=s8/s16), where s8 = swing 8ths, s16 = swing 16ths
Добавлено: 28.08.2013
Другие материалы по этой песне:

Страница создана 25.07.2013
http://primanota.ru/faspitch/mouthful-chords.htm
Привет, Гость.
Предлагаем пройти революционный курс по гитаре.
Подарок от PrimaNota.Ru, забирай!