PrimaNota.ru - самый крупный в мире бесплатный архив песенных текстов, аккордов, табулатур и нот


Farro - On A Wire - таба, видео

Регистрация Запомнить меня
Войти через:  Facebook Google Twitter Vk Yandex Mail.ru

Farro - On A Wire - таба, видео

Печатать
Просмотров: 94
On A Wire by Farro

Farro - On A Wire
Tabbed by - Helena Jensen

Webpage: http://www.farroband.com/
Song: https: https://www.youtube.com/watch?v=emish3yz_c8

Intro
listen for rhythm 
E||----------------------------------------------------|
B||----------------------------------------------------|
G||----------------------------------------------------|
D||----------------------------------------------------| X4
A||-----7-7-7-7777-777-----7-7-7-10-10-10-101010-------|
E||-13/----------------13/-----------------------------|

Awake at night
-5--------7---------8--|
-5--------8---------8--|
-5--------9---------9--|
-7--------9--------10--| X3
-----------------------|
-----------------------|

Listen for rhythm
I've got you walking on a tightrope, honey
-5-5-5-5555-555-5-5-5-7777-777--8--8--8--8-8-8-8--8-8-8--8--8--8--8-8-8-8--8-8-8--|
-5-5-5-5555-555-5-5-5-8888-888--8--8--8--8-8-8-8--8-8-8--8--8--8--8-8-8-8--8-8-8--|
-5-5-5-5555-555-5-5-5-9999-999--9--9--9--9-9-9-9--9-9-9--9--9--9--9-9-9-9--9-9-9--|
-7-7-7-7777-777-7-7-7-9999-999-10-10-10-10101010-101010-10-10-10-10101010-101010--| X3
----------------------------------------------------------------------------------|
----------------------------------------------------------------------------------|

----------------------------------------------------|
----------------------------------------------------|
----------------------------------------------------|
----------------------------------------------------| X4
-----7-7-7-7777-777-----7-7-7-10-10-10-101010-------|
-13/----------------13/-----------------------------|

A glass of wine
-5--------7---------8--|
-5--------8---------8--|
-5--------9---------9--|
-7--------9--------10--| X3
-----------------------|
-----------------------|

Listen for rhythm
I've got you walking on a tightrope, honey
-5-5-5-5555-555-5-5-5-7777-777--8--8--8--8-8-8-8--8-8-8--8--8--8--8-8-8-8--8-8-8--|
-5-5-5-5555-555-5-5-5-8888-888--8--8--8--8-8-8-8--8-8-8--8--8--8--8-8-8-8--8-8-8--|
-5-5-5-5555-555-5-5-5-9999-999--9--9--9--9-9-9-9--9-9-9--9--9--9--9-9-9-9--9-9-9--|
-7-7-7-7777-777-7-7-7-9999-999-10-10-10-10101010-101010-10-10-10-10101010-101010--| X3
----------------------------------------------------------------------------------|
----------------------------------------------------------------------------------|

Solo, listen for rhythm and tremolo:
-----------------------------------------------------|
-8/-1313131313-8/-1515151515-8/-17-17b18-18r17-15-13-| every single note is tremolo,
-----------------------------------------------------| except "8".
-----------------------------------------------------|
-----------------------------------------------------|
-----------------------------------------------------|

-----------------------------------------------|
-8/-1313131313-8/-1515151515-8/-17-17b18-18r17-| every single note is tremolo, except "8"
-----------------------------------------------| 
-----------------------------------------------|
-----------------------------------------------|
-----------------------------------------------|

I've got you walking on a tightrope, honey
-20-19-17-15-12----------------20-19-17-15-12-|
----------------15-13-17-15-17----------------| every single note is tremolo
----------------------------------------------|
----------------------------------------------|
----------------------------------------------|
----------------------------------------------|

b=bend
r= release bend 
Добавлено: 25.05.2016
Другие материалы по этой песне:
  • Аккорды и текст

Страница создана 25.05.2016
http://primanota.ru/farro/on-a-wire-chords.htm
Привет, Гость.
Предлагаем пройти революционный курс по гитаре.
Подарок от PrimaNota.Ru, забирай!