PrimaNota.ru - самый крупный в мире бесплатный архив песенных текстов, аккордов, табулатур и нот


Farro - Home - таба, видео

Регистрация Запомнить меня
Войти через:  Facebook Google Twitter Vk Yandex Mail.ru

Farro - Home - таба, видео

Печатать
Просмотров: 69
Home by Farro

Farro - Home
Tabbed by - Helena Jensen

Webpage: http://www.farroband.com/
Song: https://www.youtube.com/watch?v=vWH9eSadKf8

   Ah, Ah...
E||------------------------------------------------------------------|
B||------------------------------------------------------------------|
G||-------0---------------0---------------7---------------7----------|
D||---3-------3---3---3-------3---3---5-------5---5---5-------5---5--| 
A||-1---1---1---1---1---1---1---1---6---6---6---6---6---6---6---6----|
E||------------------------------------------------------------------|

--------------------------------------------------------------------|
--------------------------------------------------------------------|
-------10---------------10---------------7-------5-------5----------|
---7--------7---7---7--------7---7---5-------5-------5-------5---5--| X3
-8---8----8---8---8---8----8---8---6---6---6---6---6---6---6---6----|
--------------------------------------------------------------------|

Ohh... Starting again, starting it over
------------------------------------------------------------------|
------------------------------------------------------------------|
-------3---------------3---------------3---------------3----------|
---0-------0---0---0-------0---0---0-------0---0---0-------0---0--|
------------------------------------------------------------------|
-3---3---3---3---3---3---3---3---1---1---1---1---1---1---1---1----|

-------------------------------------------------------------------|
-------------------------------------------------------------------|
-------7---------------7---------------10---------------5----------| 
---5-------5---5---5-------5---5---7--------7---7---3-------3---3--|
-6---6---6---6---6---6---6---6---8---8----8---8---5---5---5---5----|
-------------------------------------------------------------------|

------------------------------------------------------------------|
------------------------------------------------------------------|
-------3---------------3---------------3---------------3----------|
---0-------0---0---0-------0---0---0-------0---0---0-------0---0--|
------------------------------------------------------------------|
-3---3---3---3---3---3---3---3---1---1---1---1---1---1---1---1----|

------------------------------------------------------|
------------------------------------------------------|
-------7---------------7---------------10----------5--| 
---5-------5---5---5-------5---5---7--------7---7--3--|
-6---6---6---6---6---6---6---6---8---8----8---8----5--|
------------------------------------------------------|

Ah, Ah...
------------------------------------------------------------------|
------------------------------------------------------------------|
-------0---------------0---------------7---------------7----------|
---3-------3---3---3-------3---3---5-------5---5---5-------5---5--| 
-1---1---1---1---1---1---1---1---6---6---6---6---6---6---6---6----|
------------------------------------------------------------------|

--------------------------------------------------------------------|
--------------------------------------------------------------------|
-------10---------------10---------------7-------5-------5----------|
---7--------7---7---7--------7---7---5-------5-------5-------5---5--| X3
-8---8----8---8---8---8----8---8---6---6---6---6---6---6---6---6----|
--------------------------------------------------------------------|

Ohh... Starting again, starting it over
------------------------------------------------------------------|
------------------------------------------------------------------|
-------3---------------3---------------3---------------3----------|
---0-------0---0---0-------0---0---0-------0---0---0-------0---0--|
------------------------------------------------------------------|
-3---3---3---3---3---3---3---3---1---1---1---1---1---1---1---1----|

-------------------------------------------------------------------|
-------------------------------------------------------------------|
-------7---------------7---------------10---------------5----------| 
---5-------5---5---5-------5---5---7--------7---7---3-------3---3--| X2
-6---6---6---6---6---6---6---6---8---8----8---8---5---5---5---5----|
-------------------------------------------------------------------|

------------------------------------------------------------------|
------------------------------------------------------------------|
-------3---------------3---------------3---------------3----------|
---0-------0---0---0-------0---0---0-------0---0---0-------0---0--|
------------------------------------------------------------------|
-3---3---3---3---3---3---3---3---1---1---1---1---1---1---1---1----|

------------------------------------------------------|
------------------------------------------------------|
-------7---------------7---------------10----------5--| 
---5-------5---5---5-------5---5---7--------7---7--3--|
-6---6---6---6---6---6---6---6---8---8----8---8----5--|
------------------------------------------------------|

Bridge:
------------------------------------------------------------------|
------------------------------------------------------------------|
-----------------------0---------------0---------------0----------|
---0---0---0---0---0-------0---0---1-------1---1---3-------3---3--| X3
-------------0---1---1---1---1---3---3---3---3---5---5---5---5----|
-3---1---3--------------------------------------------------------|

-------------------------------------------------------------------------------------|
-------------------------------------------------------------------------------------|
-----------------------0---------------0---------------0---------------0----------10-|
---0---0---0---0---0-------0---0---1-------1---1---3-------3---3---5-------5---5--7--| 
-------------0---1---1---1---1---3---3---3---3---5---5---5---5---6---6---6---6----8--|
-3---1---3---------------------------------------------------------------------------|

Outro: Ah, Ah
------------------------------------------------------------------|
------------------------------------------------------------------|
-------0---------------0---------------7---------------7----------|
---3-------3---3---3-------3---3---5-------5---5---5-------5---5--| 
-1---1---1---1---1---1---1---1---6---6---6---6---6---6---6---6----|
------------------------------------------------------------------|

-----------------------------------------------------------------------|
-----------------------------------------------------------------------|
-------10---------------10---------------7-------5-------5----------3--|
---7--------7---7---7--------7---7---5-------5-------5-------5---5--3--| 
-8---8----8---8---8---8----8---8---6---6---6---6---6---6---6---6----1--|
-----------------------------------------------------------------------|
Добавлено: 25.05.2016
Вам также может быть интересно:
Другие материалы по этой песне:
  • Аккорды и текст

Страница создана 25.05.2016
http://primanota.ru/farro/home-chords.htm
Привет, Гость.
Предлагаем пройти революционный курс по гитаре.
Подарок от PrimaNota.Ru, забирай!