PrimaNota.ru - самый крупный в мире бесплатный архив песенных текстов, аккордов, табулатур и нот


Farro - Color Rush - таба, видео

Регистрация Запомнить меня
Войти через:  Facebook Google Twitter Vk Yandex Mail.ru

Farro - Color Rush - таба, видео

Печатать
Просмотров: 138
Color Rush by Farro

Farro - Color Rush
Tabbed by - Helena Jensen

Webpage: http://www.farroband.com/
Song: https://www.youtube.com/watch?v=5ulcqU4Rz6U

Fell in love with this song first time I heard it. 
I've always been inspired by Josh, so I decided to tab his first released song from his solo project. 


Intro:

E||--7---7-7-7-7--7--7--7--7--7--7--7--7-|
B||--7---7-7-7-7--7--7--7--7--7--7--7--7-|
G||--8---8-8-8-8--8--8--8--8--8--8--8--8-|
D||--9---9-9-9-9--9--9--9--9--9--9--9--9-|
A||--------------------------------------|
E||--------------------------------------|

--14---14-14-14-14--14--14--14--14--14--14--14--14-|
--14---14-14-14-14--14--14--14--14--14--14--14--14-|
--15---15-15-15-15--15--15--15--15--15--15--15--15-|
--16---16-16-16-16--16--16--16--16--16--16--16--16-|
---------------------------------------------------|
---------------------------------------------------|
                                            
--9----9--9--9--9---9---11--9---9---9---9---9---9-|
--9----9--9--9--9---9---9---9---9---9---9---9---9-|
--9----9--9--9--9---9---9---9---9---9---9---9---9-|
--11---11-11-11-11--11--11--11--11--11--11--11--11|
--------------------------------------------------|
--------------------------------------------------|

--12---12-12-12-12--12--12--12--12--12-----------|
--12---12-12-12-12--12--12--12--12--12--16-16-16-|
--13---13-13-13-13--13--13--13--13--13--13-13-13-|
--14---14-14-14-14--14--14--14--14--14--14-14-14-|
-------------------------------------------------|
-------------------------------------------------|

--7---7-7-7-7--7--7--7--7--7--7--7--7-|
--7---7-7-7-7--7--7--7--7--7--7--7--7-|
--8---8-8-8-8--8--8--8--8--8--8--8--8-|
--9---9-9-9-9--9--9--9--9--9--9--9--9-|
--------------------------------------|
--------------------------------------|

--14---14-14-14-14--14--14--14--14--14--14--14--14-|
--14---14-14-14-14--14--14--14--14--14--14--14--14-|
--15---15-15-15-15--15--15--15--15--15--15--15--15-|
--16---16-16-16-16--16--16--16--16--16--16--16--16-|
---------------------------------------------------|
---------------------------------------------------|
                                            
--9----9--9--9--9---9---9---9---9---9---9---9---9-|
--9----9--9--9--9---9---9---9---9---9---9---9---9-|
--9----9--9--9--9---9---9---9---9---9---9---9---9-|
--11---11-11-11-11--11--11--11--11--11--11--11--11|
--------------------------------------------------|
--------------------------------------------------|

--12---12-12-12-12--12--12--12--12--12-----------|
--12---12-12-12-12--12--12--12--12--12--16-16-16-|
--13---13-13-13-13--13--13--13--13--13--13-13-13-|
--14---14-14-14-14--14--14--14--14--14--14-14-14-|
-------------------------------------------------|
-------------------------------------------------|


Vers:
Bass line on guitar:
--------------------------------|-------------------------------|
--------------------------------|-------------------------------|
--------------------------------|-------------------------------|
--------------------------------|-------------------------------|
--------------------------------|-------------------------------|
--7-7-7-7--7-7-7-7-7-7-7--7-7-7-|-2-2-2-2--2-2-2-2-2-2-2--2-2-2-|

--------------------------------|-------------------------------|
--------------------------------|-------------------------------|
--------------------------------|-------------------------------|  
--------------------------------|-------------------------------|  X2
--------------------------------|-------------------------------|
--9-9-9-9--9-9-9-9-9-9-9--9-9-9-|-0-0-0-0--0-0-0-0-0-0-0--0-0-0-|



Pre chours:
------------------------|-----------------------------|-----------------------------|
------------------------|-----------------------------|-----------------------------|
----8---8---8---8---8---|---15---15---15---15---15----|---9----9----9----9----9-----|
--9---9---9---9---9---9-|-16---16---16---16---16---16-|-11---11---11---11---11---11-|
------------------------|-----------------------------|-----------------------------|
------------------------|-----------------------------|-----------------------------|

-----------------------------------------|
-----------------------------------------|
-----13---13---13---13---13--------------|    
--14---14---14---14---14---14------------|
-----------------------------------------|
-----------------------------------------|

Chours:

Listen for strumming.

--7-----14-----9-----12-----7-----14-----9-----12-|
--7-----14-----9-----12-----7-----14-----9-----12-|
--8-----15-----9-----13-----8-----15-----9-----13-|   
--9-----16-----11----14-----9-----16-----11----14-|
--9-----16-----11----14-----9-----16-----11----14-|
--7-----14-----9-----12-----7-----14-----9-----12-|

Main riff:
--7---7-7-7-7--7--7--7--7--7--7--7--7-|
--7---7-7-7-7--7--7--7--7--7--7--7--7-|
--8---8-8-8-8--8--8--8--8--8--8--8--8-|
--9---9-9-9-9--9--9--9--9--9--9--9--9-|
--------------------------------------|
--------------------------------------|

--14---14-14-14-14--14--14--14--14--14--14--14--14-|
--14---14-14-14-14--14--14--14--14--14--14--14--14-|
--15---15-15-15-15--15--15--15--15--15--15--15--15-|
--16---16-16-16-16--16--16--16--16--16--16--16--16-|
---------------------------------------------------|
---------------------------------------------------|
                                            
--9----9--9--9--9---9---9---9---9---9---9---9---9-|
--9----9--9--9--9---9---9---9---9---9---9---9---9-|
--9----9--9--9--9---9---9---9---9---9---9---9---9-|
--11---11-11-11-11--11--11--11--11--11--11--11--11|
--------------------------------------------------|
--------------------------------------------------|

--12---12-12-12-12--12--12--12--12--12-----------|
--12---12-12-12-12--12--12--12--12--12--16-16-16-|
--13---13-13-13-13--13--13--13--13--13--13-13-13-|
--14---14-14-14-14--14--14--14--14--14--14-14-14-|
-------------------------------------------------|
-------------------------------------------------|

Vers: 

Bass line: 

--------------------------------|-------------------------------|
--------------------------------|-------------------------------|
--------------------------------|-------------------------------|
--------------------------------|-------------------------------|
--------------------------------|-------------------------------|
--7-7-7-7--7-7-7-7-7-7-7--7-7-7-|-2-2-2-2--2-2-2-2-2-2-2--2-2-2-|

--------------------------------|-------------------------------|
--------------------------------|-------------------------------|
--------------------------------|-------------------------------|  
--------------------------------|-------------------------------| 
--------------------------------|-------------------------------|
--9-9-9-9--9-9-9-9-9-9-9--9-9-9-|-0-0-0-0--0-0-0-0-0-0-0--0-0-0-|


------------------------|-----------------------------|-----------------------------|
------------------------|-----------------------------|-----------------------------|
----8---8---8---8---8---|---15---15---15---15---15----|---9----9----9----9----9-----|
--9---9---9---9---9---9-|-16---16---16---16---16---16-|-11---11---11---11---11---11-|
------------------------|-----------------------------|-----------------------------|
------------------------|-----------------------------|-----------------------------|

-----------------------------------------|
-----------------------------------------|
-----13---13---13---13---13--------------|    
--14---14---14---14---14---14------------|
-----------------------------------------|
-----------------------------------------|

Chours:

Listen for strumming.

--7-----14-----9-----12-----7-----14-----9-----12-|
--7-----14-----9-----12-----7-----14-----9-----12-|
--8-----15-----9-----13-----8-----15-----9-----13-|   
--9-----16-----11----14-----9-----16-----11----14-|
--9-----16-----11----14-----9-----16-----11----14-|
--7-----14-----9-----12-----7-----14-----9-----12-|

Bridge:

PM..PM..PM..PM..PM..PM..PM..PM..PM..PM..PM..PM..PM..PM..PM..PM..PM..PM.
-----------------------------------------------------------------------|
-----------------------------------------------------------------------|
-----------------------------------------------------------------------|   
--8--8--8--8--9---9---9---9----6---6---6---6---13----13----13----13----|
---9--9--9--9--11---11--11--11---7---7---7---7----14----14----14----14-|
-----------------------------------------------------------------------|




PM..PM..PM..PM..PM..PM..PM..PM..PM..PM..PM
-----------------------------------------------------------------------|
-----------------------------------------------------------------------|
-----------------------------------------------------------------------|   
--8--8--8--8--9---9---9---9----6---6---6---6---13----13----13----13----|
---9--9--9--9--11---11--11--11---7---7---7---7----14----14----14----14-|
-----------------------------------------------------------------------|

Solo:

Let it ring
--------------------------------------------------|
--11----11----11----11----12----12----12----12----|
-----11----11----11----11----11----11----11----11-|   
--------------------------------------------------|
--------------------------------------------------|
--------------------------------------------------|

---------------------------------------------|
--9---9---9---9---16----16----16----16----16-|
----9---9---9---9----16----16----16----16----|   X2
---------------------------------------------|
---------------------------------------------|
---------------------------------------------|

Let it ring
------------------------------|
------------------------------|
--8---------------------------|   
--9---------------------------|
--9---------------------------|
--7---------------------------|

--14-14-14-14-14-14-14-14-14-14-14-14-14-14-14-14-|
--14-14-14-14-14-14-14-14-14-14-14-14-14-14-14-14-|
--15-15-15-15-15-15-15-15-15-15-15-15-15-15-15-15-|
--16-16-16-16-16-16-16-16-16-16-16-16-16-16-16-16-|
--------------------------------------------------|
--------------------------------------------------|
                                            
--9--9--9--9--9--9--9--9--9--9--9--9--9--9--9--9--|
--9--9--9--9--9--9--9--9--9--9--9--9--9--9--9--9--|
--9--9--9--9--9--9--9--9--9--9--9--9--9--9--9--9--|
--11-11-11-11-11-11-11-11-11-11-11-11-11-11-11-11-|
--------------------------------------------------|
--------------------------------------------------|

--12-12--12-12--12-12--12-12--12-12-12-|
--12-12--12-12--12-12--12-12--12-12-12-|
--13-13--13-13--13-13--13-13--13-13-13-|
--14-14--14-14--14-14--14-14--14-14-14-|
---------------------------------------|
---------------------------------------|

Chours:

Listen for strumming.

--7-----14-----9-----12-----7-----14-----9-----12-|
--7-----14-----9-----12-----7-----14-----9-----12-|
--8-----15-----9-----13-----8-----15-----9-----13-|   
--9-----16-----11----14-----9-----16-----11----14-|
--9-----16-----11----14-----9-----16-----11----14-|
--7-----14-----9-----12-----7-----14-----9-----12-|

Outro:

--7---7-7-7-7--7--7--7--7--7--7--7--7-|
--7---7-7-7-7--7--7--7--7--7--7--7--7-|
--8---8-8-8-8--8--8--8--8--8--8--8--8-|
--9---9-9-9-9--9--9--9--9--9--9--9--9-|
--------------------------------------|
--------------------------------------|

--14---14-14-14-14--14--14--14--14--14--14--14--14-|
--14---14-14-14-14--14--14--14--14--14--14--14--14-|
--15---15-15-15-15--15--15--15--15--15--15--15--15-|
--16---16-16-16-16--16--16--16--16--16--16--16--16-|
---------------------------------------------------|
---------------------------------------------------|
                                            
--9----9--9--9--9---9---9---9---9---9---9---9---9-|
--9----9--9--9--9---9---9---9---9---9---9---9---9-|
--9----9--9--9--9---9---9---9---9---9---9---9---9-|
--11---11-11-11-11--11--11--11--11--11--11--11--11|
--------------------------------------------------|
--------------------------------------------------|

--12---12-12-12-12--12--12--12--12--12------------7-|
--12---12-12-12-12--12--12--12--12--12--16-16-16--7-|
--13---13-13-13-13--13--13--13--13--13--13-13-13--8-|
--14---14-14-14-14--14--14--14--14--14--14-14-14--9-|
----------------------------------------------------|
----------------------------------------------------|

Добавлено: 14.12.2015
Другие материалы по этой песне:
  • Аккорды и текст

Страница создана 14.12.2015
http://primanota.ru/farro/color-rush-chords.htm
Привет, Гость.
Предлагаем пройти революционный курс по гитаре.
Подарок от PrimaNota.Ru, забирай!