PrimaNota.ru - самый крупный в мире бесплатный архив песенных текстов, аккордов, табулатур и нот


Farro - Cliffs - таба, видео

Регистрация Запомнить меня
Войти через:  Facebook Google Twitter Vk Yandex Mail.ru

Farro - Cliffs - таба, видео

Печатать
Просмотров: 139
Уроки эстрадного вокала в Санкт-Петербурге
Cliffs by Farro

Farro - Cliffs
Tabbed by - Helena Jensen

Webpage: http://www.farroband.com/
Song: https://www.youtube.com/watch?v=V-yjtdJz98s

E||----------------------------------------------------------------------|
B||----------------------------------------------------------------------|
G||----------------------------------------------------------------------|
D||-3-3-3-3-3-3-3-3-8-3-3-3-3-3-3-8-3-3-3-3-3-3-10--10-10-10-10-10-10-10-| X2
A||-3-3-3-3-3-3-3-3-8-3-3-3-3-3-3-8-3-3-3-3-3-3-10--10-10-10-10-10-10-10-|
E||-1-1-1-1-1-1-1-1-6-1-1-1-1-1-1-6-1-1-1-1-1-1-8---8--8--8--8--8--8--8--|

Vers
Here you stand...
--------------------------------------------------------------------------------------|
--------------------------------------------------------------------------------------|
--------------------------------------------------------------------------------------|
-8-8-8-8-X4-3-3-3-3-X4-8-8-8-8-X3-10-10-10-10-12-12-12-12-12-12-12-12-2-2-2-2-2-2-2-2-|X2
--------------------------------------------------------------------------------------|
--------------------------------------------------------------------------------------|


So jump in the water...
-------------------------------------------|
-------------------------------------------|
-------------------------------------------|
-------------------------------------------|
----0--1-----0--1-----0--1-----0--1--5--3--|
-1--------1--------1--------1--------------|

----------------------------------------------------------------------|
----------------------------------------------------------------------|
----------------------------------------------------------------------|
-3-3-3-3-3-3-3-3-8-3-3-3-3-3-3-8-3-3-3-3-3-3-10--10-10-10-10-10-10-10-| X2
-3-3-3-3-3-3-3-3-8-3-3-3-3-3-3-8-3-3-3-3-3-3-10--10-10-10-10-10-10-10-|
-1-1-1-1-1-1-1-1-6-1-1-1-1-1-1-6-1-1-1-1-1-1-8---8--8--8--8--8--8--8--|

Vers                                           
-------------------------------------------------------------------------|
-------------------------------------------------------------------------|
-10-10-12-12-14-14-12-10-10-10-12-12-14-14-12-10-10-10-12-12-14-14-12-10-|
-------------------------------------------------------------------------| X2
-------------------------------------------------------------------------|
-------------------------------------------------------------------------|
                                            
There's only one way down...
------------------------------------------|
------------------------------------------|
-10-10-12-14-12---------------------------|
-----------------10-----------------------|
-----------------10-----------------------|
-----------------8------------------------|
                                            
So jump in the water...
---------------------------------------------|
---------------------------------------------|
---------------------------------------------|
-3-3-3-3-3-3-3-3-7-7-7-7-8-8-8-8-------------| X8
-3-3-3-3-3-3-3-3-7-7-7-7-8-8-8-8-------------|
-1-1-1-1-1-1-1-1-5-5-5-5-6-6-6-6-------------|
                                            
You'll make it out alive
--------------------------------------------------|
--------------------------------------------------|
--------------------------------------------------|
-12-12-12-12-12-12-12-12-10-10-10-10-10-10-10-10--|
-12-12-12-12-12-12-12-12-10-10-10-10-10-10-10-10--|
-10-10-10-10-10-10-10-10-8--8--8--8--8--8--8--8---|
                                          
Solo
I think he is using a pedal, but you can also do fast strumming. Listen to the song to get it right.
It is only Josh's voice the second time, but it is the same notes.
--------------------------------------------|
--------------------------------------------|
-10----14----12----15----14----17----9------|
--------------------------------------------| 
--------------------------------------------|
--------------------------------------------|

Ohhh...
--------------------------------------|
--------------------------------------|
-10----14----12----15----14----9------|
--------------------------------------| 
--------------------------------------|
--------------------------------------|

So jump in the water...
(I'm not sure about this part)
PM...PM...PM...PM...PM...PM...PM...PM...PM...
---------------------------------------------|
---------------------------------------------|
---------------------------------------------|
-3-3-3-3-3-3-3-3-7-7-7-7-8-8-8-8-------------| X4
-3-3-3-3-3-3-3-3-7-7-7-7-8-8-8-8-------------|
-1-1-1-1-1-1-1-1-5-5-5-5-6-6-6-6-------------|

So Jump in the water...
---------------------------------------------|
---------------------------------------------|
---------------------------------------------|
-3-3-3-3-3-3-3-3-7-7-7-7-8-8-8-8-------------| X4
-3-3-3-3-3-3-3-3-7-7-7-7-8-8-8-8-------------|
-1-1-1-1-1-1-1-1-5-5-5-5-6-6-6-6-------------|

You'll make it out alive...
--------------------------------------------------|
--------------------------------------------------|
--------------------------------------------------|
-12-12-12-12-12-12-12-12-10-10-10-10-10-10-10-10--|
-12-12-12-12-12-12-12-12-10-10-10-10-10-10-10-10--|
-10-10-10-10-10-10-10-10-8--8--8--8--8--8--8--8---|

----------------------------------------------------------------------|
----------------------------------------------------------------------|
----------------------------------------------------------------------|
-3-3-3-3-3-3-3-3-8-3-3-3-3-3-3-8-3-3-3-3-3-3-10--10-10-10-10-10-10-10-| X2
-3-3-3-3-3-3-3-3-8-3-3-3-3-3-3-8-3-3-3-3-3-3-10--10-10-10-10-10-10-10-|
-1-1-1-1-1-1-1-1-6-1-1-1-1-1-1-6-1-1-1-1-1-1-8---8--8--8--8--8--8--8--|
Добавлено: 25.05.2016
Другие материалы по этой песне:
  • Аккорды и текст

Страница создана 25.05.2016
http://primanota.ru/farro/cliffs-chords.htm
Привет, Гость.
Предлагаем пройти революционный курс по гитаре.
Подарок от PrimaNota.Ru, забирай!