PrimaNota.ru - самый крупный в мире бесплатный архив песенных текстов, аккордов, табулатур и нот


Farin Urlaub Racing Team - Rest Der Welt - аккорды и текст, видео

Регистрация Запомнить меня
Войти через:  Facebook Google Twitter Vk Yandex Mail.ru

Farin Urlaub Racing Team - Rest Der Welt - аккорды и текст, видео

Печатать
Просмотров: 154
Уроки эстрадного вокала в Санкт-Петербурге
Авторы музыки: Farin Urlaub
Авторы текста: Farin Urlaub
Rest Der Welt
Farin Urlaub Racing Team
Rest der Welt
==============
(M/T) Urlaub


Intro
C G F F/G 
C G F /
C G F F/G
F   G


   C                 G                 Am         F
1:-----------------|-----------------|------------------|
2:-----8-8-6-6-5-5-|-----------------|------------------|
3:-5-5-------------|-----7-7-5-5-7-7-|-/9-9--9-7--5-(0)-|
4:-----------------|-5-5-------------|------------------|
5:-----------------|-----------------|------------------|
6:-----------------|-----------------|------------------|

   C                 G                 Am          F
1:-----------------|-----------------|------------------|
2:-----8-8-6-6-5-5-|-----------------|------------------|
3:-5-5-------------|-----7-7-5-5-7-7-|-/9-9--9-7--/10---|
4:-----------------|-5-5-------------|------------------|
5:-----------------|-----------------|------------------|
6:-----------------|-----------------|------------------|
   C
1:-----------------|
2:-----------------|
3:-/9~~~~----5-~~~~|
4:-----------------|
5:-----------------|
6:-----------------|


( Am        F             C
Ich wusste nie wohin ich eigentlich gehöre (geschlossene Anstalt)
Am            F                C
Und was ich will war mir nicht klar
Am       F            C 
Meine Feinde war'n Verräter und Frisöre (scheiß Frisöre)
Am             F                    C)
Doch jetzt ist nichts wie's vorher war

                    F F F                            C  C  C 
Ich glaube fest an dich   -   und das tat ich gestern nicht 
                 Am                       G#                  
Doch nach dieser Nacht, die unglaublich war
             G                        F
Bin ich aufgewacht - und es wurde mir endlich klar:


    Dm                    
Das wahre Liebe immer noch am besten hält 
          F            G-
Hier sind du und ich, gegen den Rest der Welt!


   C                 G                 Am         F
1:-----------------|-----------------|-----------------------|
2:-----8-8-6-6-5-5-|-----------------|-----------------------|
3:-5-5-------------|-----7-7-5-5-7-7-|-/9-9--9-7--5----------|
4:-----------------|-5-5-------------|--------------(5-^7-5)-|
5:-----------------|-----------------|-----------------------|
6:-----------------|-----------------|-----------------------|

   C                 G                 Am          F
1:-----------------|-----------------|------------------|
2:-----8-8-6-6-5-5-|-----------------|------------------|
3:-5-5-------------|-----7-7-5-5-7-7-|-/9-9--9-7--/10---|
4:-----------------|-5-5-------------|------------------|
5:-----------------|-----------------|------------------|
6:-----------------|-----------------|------------------|

Am                F            C
Vielleicht werd' ich ja morgen reich oder bin pleite
Am         F               C
Egal was kommt, ich bin bereit
Am           F                 C
Was auch passiert, ich weiß du stehst an meiner Seite
Am       F                  C 
Egal was kommt, wir sind zu zweit


                     F  F  F                         C   C  C 
Ich kenn die Zukunft nicht   -   Doch ich bin voll Zuversicht 
             Am                 G#                       G
Spürst du es auch, diese Nervosität - dieses kribbeln im Bauch 
                   F
Nicht wissen wie's weiter geht

                Dm
Ich fühl' mich Furchtloser als jeder Westernheld
     F          G
Nur du und ich, gegen den erst der Welt


Am               F               C           G
Ich sag nichts, du sagst nichts, weil Worte überflüssig sind 
Am               F                C         D 
Ich sag nichts, du sagst nichts, doch etwas herrliches beginnt 
Am            F               C      G
Wir stehen - und schweigen, dieser Moment ist grandios 
Am            F           C               D                  F        G        /F'       
Du weißt es, ich weiß es - ich halt dich fest und lass dich nie mehr los!


Outro
C G F F/G 
C G F /
C G F F/G
F   G


   C                 G                 Am         F
1:-----------------|-----------------|------------------|
2:-----8-8-6-6-5-5-|-----------------|------------------|
3:-5-5-------------|-----7-7-5-5-7-7-|-/9-9--9-7--5-(0)-|
4:-----------------|-5-5-------------|------------------|
5:-----------------|-----------------|------------------|
6:-----------------|-----------------|------------------|

   C                 G                 Am          F
1:-----------------|-----------------|------------------|
2:-----8-8-6-6-5-5-|-----------------|------------------|
3:-5-5-------------|-----7-7-5-5-7-7-|-/9-9--9-7--/10---|
4:-----------------|-5-5-------------|------------------|
5:-----------------|-----------------|------------------|
6:-----------------|-----------------|------------------|
   C
1:-----------------|
2:-----------------|
3:-/9----5---0--7--|
4:-----------------|
5:-----------------|
6:-----------------|
Добавлено: 14.07.2015
Другие материалы по этой песне:
  • Аккорды и текст

Страница создана 14.07.2015
http://primanota.ru/farin-urlaub-racing-team/rest-der-welt-chords.htm
Привет, Гость.
Предлагаем пройти революционный курс по гитаре.
Подарок от PrimaNota.Ru, забирай!