PrimaNota.ru - самый крупный в мире бесплатный архив песенных текстов, аккордов, табулатур и нот


Farin Urlaub Racing Team - Das Schoene Maedchen - аккорды и текст, драм-таба, видео

Регистрация Запомнить меня
Войти через:  Facebook Google Twitter Vk Yandex Mail.ru

Farin Urlaub Racing Team - Das Schoene Maedchen - аккорды и текст, драм-таба, видео

Печатать
Просмотров: 136
Das Schoene Maedchen
Farin Urlaub Racing Team
Artist: Farin Urlaub
Song: Das schöne Mädchen
Album: Endlich Urlaub
Year: 2001
Tabber: beranger80@hotmail.com


Chords
Em7: 022030
Am7: x02213


Intro:

    C                  Em
e--------------------|------------------|
b----------1--1--1---|------------------|
g-----(0)--0--0--0---|-0----------------|
d----------2--2--2---|-2----------------|
a---3------3--3--3---|-2----------------|
e--------------------|-0----------------|x3


    C                  Em        Em7
e--------------------|------------------|
b----------1--1--1---|----------(3)-----|
g------0---0--0--0---|-0----------------|
d----------2--2--2---|-2----------------|
a---3------3--3--3---|-2----------------|
e--------------------|-0----------------|
                                4th time


Verse:

C                       Em  Em7
Manchmal kommt sie hier vorbei,
C                       Em  Em7
aber stehen bleib sie nie.
C                       Em  Em7
Manchmal nehme ich mir frei
C                       Em
und dann wart ich hier auf sie.
     G
Auf sie.



Chorus:

Am          D
Das schöne Mädchen.
Am          D
Das schöne Mädchen.



Post Chorus:

    C                  Em
e--------------------|------------------|
b----------1--1--1---|----------(3)-----|
g------0---0--0--0---|-0----------------|
d----------2--2--2---|-2----------------|
a---3------3--3--3---|-2----------------|
e--------------------|-0----------------|x2



Verse: 

C                       Em
Ab und zu ist das Wetter schön
C                       Em  Em7
und dann lächelt sie sogar.
C                       Em  Em7
Ich hab sie schon so oft gesehn,
C                       Em
doch sie nimmt mich gar nicht wahr.
       G
Nicht wahr.



Chorus: 

Am7          D
Das schöne Mädchen.
Am7          D
Das schöne Mädchen.
Am7          D
Das schöne Mädchen.
Am7          D
Das schöne Mädchen.



Solo: 

e---------------------|------------------|
b-------8--10--12-----|-------8--10--12--|
g--9---------------9--|--9---------------|
d---------------------|------------------|
a---------------------|------------------|
e---------------------|------------------|
                   x3            4th time



Chorus:

Am7          D
Das schöne Mädchen.
Am7          D
Das schöne Mädchen.




Verse (play the chord only once):

C                       Em
Wenn der erste Sonnenschein
C                 Em
auf ihre Haare fällt,
C                       Em
dann gäb ich alles in der Welt,
C                       Em
um ein Sonnenstrahl zu sein.
n.C.
Einmal.




Verse: 

C                       Em  Em7
Ich werde weiter auf sie warten,
C                       Em  Em7
vielleicht sprech ich sie ja mal an.
C                       Em  Em7
Ich würd ihr gern so viel erzählen, erzählen.
C                       Em
und sie wird zuhören,irgendwann
      G
irgendwann.



Chorus: 

Am7          D
Das schöne Mädchen.
Am7          D
Das schöne Mädchen.




Coda:

Am7      D  to the end on  ad lib lyrics.


End on:
Am on 4:29.
Добавлено: 22.12.2013
Другие материалы по этой песне:
  • Аккорды и текст

Страница создана 05.05.2012
http://primanota.ru/farin-urlaub-racing-team/das-schoene-maedchen-chords.htm
Привет, Гость.
Предлагаем пройти революционный курс по гитаре.
Подарок от PrimaNota.Ru, забирай!