PrimaNota.ru - самый крупный в мире бесплатный архив песенных текстов, аккордов, табулатур и нот


Farewell - September Brought The Fall - таба, видео

Регистрация Запомнить меня
Войти через:  Facebook Google Twitter Vk Yandex Mail.ru

Farewell - September Brought The Fall - таба, видео

Печатать
Просмотров: 101
September Brought the Fall by Farewell

Farewell is signed with Epitaph Records
http://www.myspace.com/farewell

I love this band and this song .I love the tone and everything about it and none of 
songs are on the site so I thought I'd try my hand at one of them

First Verse
E|--8--8--9--9---8--8--9--9--9----|
B|----9--9--9--9--9--9--9--9---9--|
G|------8--8--8--8--8--9----------|
D|--------------------------------|        x4
A|--------------------------------|
E|--------------------------------|

Bridge (So conteptable...)
E|---------------------------|
B|---9----9------------------|
G|----8-8--8-----------------|
D|-----------11--------------|    x8
A|---------------------------|
E|---------------------------|

Chorus
E|------------------------------|
B|------------------------------|
G|------------------------------|    x4
D|-44-44-6-6-6-22---------------|
A|-44-44-6-6-6-22---------------|
E|-22-22-4-4-4-11---------------|

Verse 2
E|------------------------------|
B|------------------------------|
G|------------------------------|
D|------------------------------|    x2
A|-4~/6~/3~/4~4~/6~/8~/11~------|
E|-6~/8~/4~/6~6~/8~/9~/13~------|

Bridge (Its Despicable...)
E|---------------------------|
B|---9----9------------------|
G|----8-8--8-----------------|
D|-----------11--------------|    x8
A|---------------------------|
E|---------------------------|

Chorus
E|------------------------------|
B|------------------------------|
G|------------------------------|    x4
D|-44-44-6-6-6-22---------------|
A|-44-44-6-6-6-22---------------|
E|-22-22-4-4-4-11---------------|

Bridge (better watch out if you..) (2x)
E|-------------------------------------------------|
B|-------------------------------------------------|
G|-------------------------------------------------|
D|-66-6-66-6-6-66-6-66-6-6-------------------------|
A|-44-4-44-4-4-44-4-44-4-4-66-6-66-6-6-66-6-66-6-8-|
E|-------------------------44-4-44-4-4-44-4-44-4-6-|

E|-------------------------------------------------|
B|-------------------------------------------------|
G|-------------------------------------------------|
D|-------------------------------------------------|
A|-99-9-99-9-9-99-9-99-9-9-44-4-44-4-4-66-6-66-6-6-|
E|-77-7-77-7-7-77-7-77-7-7-22-2-22-2-2-44-4-44-4-4-|

Transition into chorus...hold for 8 counts
E|-------------|
B|-------------|
G|-------------|
D|-6~----------|
A|-4~----------|
E|-------------|

Chorus
E|------------------------------|
B|------------------------------|
G|------------------------------|    x8
D|-44-44-6-6-6-22---------------|
A|-44-44-6-6-6-22---------------|
E|-22-22-4-4-4-11---------------|

Outro
E|-------------|
B|-------------|
G|-------------|
D|-------6~~---| hold till the end
A|-44-44-4~~---|
E|-22-22-------|
Добавлено: 27.02.2012
Другие материалы по этой песне:
  • Аккорды и текст

Страница создана 27.02.2012
http://primanota.ru/farewell/september-brought-the-fall-chords.htm
Привет, Гость.
Предлагаем пройти революционный курс по гитаре.
Подарок от PrimaNota.Ru, забирай!