PrimaNota.ru - самый крупный в мире бесплатный архив песенных текстов, аккордов, табулатур и нот


Farewell To Freeway - The Glory Days - таба, видео

Регистрация Запомнить меня
Войти через:  Facebook Google Twitter Vk Yandex Mail.ru

Farewell To Freeway - The Glory Days - таба, видео

Печатать
Просмотров: 106
Farewell to Freeway - The Glory Days

Drop D

h=hammer on
p=pull off
\,/=slide

Probably not completly right(and a bit simplified at times) but might help someone. :)

intro
e|--------------------------| x3
B|--------------------------|
G|--------------------------|
D|--5--7--8--7h8p7--5\-3/5--|
A|--------------------------|
D|--------------------------|

e|--------------------------|
B|--------------------------|
G|--------------------------|
D|--5--7--8--7h8p7-5\33-5---|
A|--------------------------|
D|--------------------------|

--

*	e|--8-h10-10-8-8-----------------| x4
*	B|--------------11-10-11---------|
*	G|-----------------------10--10--|
*	D|-------------------------------|
*	A|-------------------------------|
*	D|-------------------------------|
*	
*	e|--8-h10-10-8-8-8-8/13--13--13--|
*	B|-------------------------------|
*	G|-------------------------------|
*	D|-------------------------------|
*	A|-------------------------------|
*	D|-------------------------------|
*	
*	e|--8-h10-10-8-8-----------------|
*	B|--------------11-10-11---------|
*	G|-----------------------10--10--|
*	D|-------------------------------|
*	A|-------------------------------|
*	D|-------------------------------|
*	
*	e|--8-h10-10-8-8-----------------|
*	B|--------------11-10-11---------|
*	G|-----------------------10------|
*	D|-------------------------------|
*	A|-------------------------------|
*	D|-------------------------------|
*	
*	--
*	
*	play these three tabs for a bit..figure out tempo, where to palm mute and 
such on your own :P
*	e|-------------|
*	B|-------------|
*	G|-------------|
*	D|--5---1---3--|
*	A|--5---1---3--|
*	D|--5---1---3--|
	

--

e|--------------------------| x3
B|--------------------------|
G|--------------------------|
D|--5--7--8--7h8p7--5\-3/5--|
A|--------------------------|
D|--------------------------|

e|--------------------------|
B|--------------------------|
G|--------------------------|
D|--5--7--8--7--------------|
A|--------------------------|
D|--------------------------|

--

repeat the part marked with * then:

--

e|--8-h10-10-8-8-8-8/13--13--13---------------------| x2
B|--------------------------------------------------|
G|--------------------------------------------------|
D|--------------------------------------------------|
A|--------------------------------------------------|
D|--------------------------------------------------|

e|----------------------------------------6\5/13-13-|
B|--10-h11-11-10-8\6-6-h8-8-8--6-h8-8-6-6-----------|
G|--------------------------------------------------|
D|--------------------------------------------------|
A|--------------------------------------------------|
D|--------------------------------------------------|

e|--8-h10-10-8-8-8-8/13--13--13--| x2
B|-------------------------------|
G|-------------------------------|
D|-------------------------------|
A|-------------------------------|
D|-------------------------------|

e|--17-h18-18-17-15-13-13-15-----| x2
B|---------------------------15--|
G|-------------------------------|
D|-------------------------------|
A|-------------------------------|
D|-------------------------------|

e|--8-h10-10-8-8-8-8/13--13--13--|
B|-------------------------------|
G|-------------------------------|
D|-------------------------------|
A|-------------------------------|
D|-------------------------------|

e|--8-h10-10-8-8-8-8\6--6--6\5-5-h6-6-5-5--------------------------6\5/13-13--|
B|----------------------------------------6-h8--8--8--8--6/8-8-6-6------------|
G|----------------------------------------------------------------------------|
D|----------------------------------------------------------------------------|
A|----------------------------------------------------------------------------|
D|----------------------------------------------------------------------------|

--

e|-----10-8--| x2
B|--8--------|
G|-----------|
D|-----------|
A|-----------|
D|-----------|

e|-----8-6----| x2
B|--6---------|
G|------------|
D|------------|
A|------------|
D|------------|

e|------------| x2
B|--8--11-10--|
G|------------|
D|------------|
A|------------|
D|------------|

e|-----6-5----| x2
B|--6---------|
G|------------|
D|------------|
A|------------|
D|------------|
Добавлено: 01.07.2012
Вам также может быть интересно:
Другие материалы по этой песне:
  • Аккорды и текст

Страница создана 01.07.2012
http://primanota.ru/farewell-to-freeway/the-glory-days-chords.htm
Привет, Гость.
Предлагаем пройти революционный курс по гитаре.
Подарок от PrimaNota.Ru, забирай!