PrimaNota.ru - самый крупный в мире бесплатный архив песенных текстов, аккордов, табулатур и нот


Farewell 2 Fear - Diamonds - таба, видео

Регистрация Запомнить меня
Войти через:  Facebook Google Twitter Vk Yandex Mail.ru

Farewell 2 Fear - Diamonds - таба, видео

Печатать
Просмотров: 101
Уроки эстрадного вокала в Санкт-Петербурге
Drop b Tuning

. = palm mutes
~ = hold
h/p = hammer-on/pull-off



--------------------------------------------|
--------------------------------------------|
--------------------------------------------|
---3-2~-----3-2~-----3-2~-----3-5-2---------|
-1--------5--------3--------3-------3-------| x 3
--------------------------------------------|

--------------------------------------------|
--------------------------------------------|
-----2~-------------------------------------|
---3--------5-7~-----2-5~-----3-5-2---------|
-1--------5--------3--------3-------3-------| x1
--------------------------------------------|

------------------------------------------------------------------|
------------------------------------------------------------------|
------------------------------------------------------------------|
-3--3-3--3p2-3---7--7-7--7p5-7h7--5--5-5--5p3-5---3~2-----3~2-----|
-1--1-1--1-1-1---5--5-5--5-5-5-5--3--3-3--3-3-3-------3-3-----3---| x4
------------------------------------------------------------------|
                                                      . .

--------------------------------------------|
--------------------------------------------|
-----2~-------------------------------------|
---3--------5-7~-----2-5~-----3-5-2---------|
-1--------5--------3--------3-------3-------| x2
--------------------------------------------|


-------------------------------------------------------------------|
-------------------------------------------------------------------|
-------------------------------------------------------------------|
-------------------------------------------------------------------|
--3-3--3--3-3---3/7---------------5-5--5--5-5-------3~2-----3~2~---|
--1-1--1--1-1---1/5-0-0--0--0-0---3-3--3--3-3---3-3-----3-3-----3--| x1
--------------------0-0--0--0-0------------------------------------|
                                                . .     . .


-------------------------------------------------|----------------------|--------------------------|
-------------------------------------------------|----------------------|--------------------------|
-------------------------------------------------|----------------------|--------------------------|
-3--3-3--3p2-3---7--7-7--7p5-7h7---5--5-5--5p3-5-|---0h3~2-----3~2------|-----3-----2-----3p2h3~-2~|
-1--1-1--1-1-1---5--5-5--5-5-5-5---3--3-3--3-3-3-|---------3-3-----3----|-3-3---3-3---3-3---------3|
-------------------------------------------------|----------------------|--------------------------|
                                                 |         . .          | . .   . .   . .          |
                                            x4         first ending x1         other ending  x3

-------------------------------------------------------------------------------------|
-------------------------------------------------------------------------------------|
-------------------------------------------------------------------------------------|
-------------------------------------------------------------------------------------|
--3-3--3--3-3-------------2--3--5~-----5-5--5--5-5-----3-----2-----3p2h3~----2~------|
--1-1--1--1-1----0-0--0----------------3-3--3--3-3-------3-3---3-3-------3-3---3-3-3-| x1
-----------------0-0--0-0--00-00-----------------------------------------------------|
                        .  .. ..                         . .   . .       . .   . .

-------------------------------------------------|----------------------|
-------------------------------------------------|----------------------|
-------------------------------------------------|----------------------|
-3--3-3--3p2-3---7--7-7--7p5-7h7---5--5-5--5p3-5-|---0h3~2-----3~2------|
-1--1-1--1-1-1---5--5-5--5-5-5-5---3--3-3--3-3-3-|---------3-3-----3----|
-------------------------------------------------|----------------------|
                                                 |         . .          |
                                            x3         first ending x1  |

|-----------------------------------|
|-----------------------------------|
|-----------------------------------|
|-----3-----2-----3p2h3~----2~------|
|-3-3---3-3---3-3-------3-3---3-3-3-|
|-----------------------------------|
| . .   . .   . .       . .   . .   |
       other ending  x2

---------------------|
---------------------|
---------------------|
-3~-----7~-----5~----|
-1~-----5~-----3~----|
---------------------|

Tab by Myztkl-Kev
Добавлено: 04.08.2013
Другие материалы по этой песне:
  • Аккорды и текст

Страница создана 04.08.2013
http://primanota.ru/farewell-2-fear/diamonds-chords.htm
Привет, Гость.
Предлагаем пройти революционный курс по гитаре.
Подарок от PrimaNota.Ru, забирай!