PrimaNota.ru - самый крупный в мире бесплатный архив песенных текстов, аккордов, табулатур и нот


Fareoh - Skinny Love - таба, видео

Регистрация Запомнить меня
Войти через:  Facebook Google Twitter Vk Yandex Mail.ru

Fareoh - Skinny Love - таба, видео

Печатать
Просмотров: 68
-------------------------------------------------------------------------------
                    Skinny Love (Fareoh Remix) - Birdy
-------------------------------------------------------------------------------
Tabbed by: Fareoh
E-mail:

Tuning:

e|---------------------------------------------------------------------------|
B|---------0-------------0-------------0-------------0-----------------------|
G|------------3-------------3-------------3-------------3--------------------|
D|------2-------------2-------------2-------------2--------------------------|
A|4--4-------------0---------------------------------------------------------|
E|-------------------------------0-------------0-----------------------------|

e|---------------------------------------------------------------------------|
B|-------------------------------------0-------------1-----------------------|
G|---------0-------------0----------------3-------------1--------------------|
D|------------3-------2-----3-------2-------------1--------------------------|
A|------2----------0---------------------------3-----------------------------|
E|4--4---------------------------0-------------------------------------------|
Добавлено: 04.08.2015
Другие материалы по этой песне:
  • Аккорды и текст

Страница создана 04.08.2015
http://primanota.ru/fareoh/skinny-love-chords.htm
Привет, Гость.
Предлагаем пройти революционный курс по гитаре.
Подарок от PrimaNota.Ru, забирай!