PrimaNota.ru - самый крупный в мире бесплатный архив песенных текстов, аккордов, табулатур и нот


Far - Wear It So Well Water And Solutions - таба, видео

Регистрация Запомнить меня
Войти через:  Facebook Google Twitter Vk Yandex Mail.ru

Far - Wear It So Well Water And Solutions - таба, видео

Печатать
Просмотров: 107
This is my first tab so here it goes
This song is played in Drop D tuning

////=DRAG NOTE
~~~=LET RING

Intro:

E-------------------|
B-------------------|
G---999-------------|
D-4-XXX-0-4/7-00----|
A-4-777-0-4/7-00----|
D-4-----0-4/7-00----|

Verse:
E---------------|
B---------------|
G---------------|
D--4~~~~0~~~~~~~|
A--4~~~~0~~~~~~~|
D--4~~~~0~~~~~~~|

Midway through verse shaun plays

E--------------------|
B--------------------|
G-7/999/111111/121212|
D-X/XXXXXXXXXX/XXXXXX|
A-5/777/999999/101010|
D--------------------|

Then back to
E----------------------|
B----------------------|
G----------------------|
D--4~~~~0~~~~~000000000|
A--4~~~~0~~~~~000000000|
D--4~~~~0~~~~~000000000|

Breakdown/Bridge
E-----------------|
B-----------------|
G----999----------|
D--4-XXX-0-4/7-00-|
A--4-777-0-4/7-00-|
D--4-----0-4/7-00-|

Chorus:
E-----------------------------------------------------------------------|
B-----------------------------------------------------------------------|
G-----------------------------------7/999/1111111/121212----------7~~~~-|
D-2222-4444-0000000000000-2222-4444-XXXXXXXXXXXXXXXXXXX-2222-4444-x~~~~-|
A-2222-4444-0000000000000-2222-4444-5/777/999999/101010-2222-4444-5~~~~-|
D-2222-4444-0000000000000-2222-4444---------------------2222-4444-------|
Verse:
E--------------------------------------|
B--------------------------------------|
G--------------------------------------|
D-4~~~~~0~~~~~4~~~~~7/999/111111/121212|
A-4~~~~~0~~~~~4~~~~~XXXXXXXXXXXXXXXXXXX|
D-4~~~~~0~~~~~4~~~~~5/777/999999/101010|

Bridge:
E------------------|
B------------------|
G------------------|
D-7~~~9~~~11~~12~~~|
A-X~~~X~~~X~~~X~~~~|X2
D-5~~~7~~~9~~~10~~~|

Chorus:
E----------------------------------------------------------|
B----------------------------------------------------------|
G----------------------------------------------------------|
D-2222-4444-000000000000000-2222-4444-7/999/1111111/121212-|
A-2222-4444-000000000000000-2222-4444-xxxxxxxxxxxxxxxxxxxx-|
D-2222-4444-000000000000000-2222-4444-5/777/999999/101010--|

Extended Chorus:
E---------------------------------------------------|
B---------------------------------------------------|
G---------------------------------------------------|
D-2222-0-9-10101010101010---2222-4444-0000000000000-|
A-2222-0-9-10101010101010---2222-4444-0000000000000-|
D-2222-0-9-10101010101010---2222-4444-0000000000000-|

Outro:PLAY THIS RIFF TILL THE END
E--------------------------|
B--------------------------|
G---777--------------------|
D-4-XXX-0-4-7-00-----------|
A-4-555-0-4-7-00-----------|
D-4-----0-4-7-00-----------|

Far are amazing and so is this song
i feel its pretty accurate so enjoy
Добавлено: 24.04.2012
Другие материалы по этой песне:
  • Аккорды и текст

Страница создана 24.04.2012
http://primanota.ru/far/wear-it-so-well-water-and-solutions-chords.htm
Привет, Гость.
Предлагаем пройти революционный курс по гитаре.
Подарок от PrimaNota.Ru, забирай!