PrimaNota.ru - самый крупный в мире бесплатный архив песенных текстов, аккордов, табулатур и нот


Far - Sorrows End - текст песни, таба, видео

Регистрация Запомнить меня
Войти через:  Facebook Google Twitter Vk Yandex Mail.ru

Far - Sorrows End - текст песни, таба, видео

Печатать
Просмотров: 150
INTRO

E|--0---0---0---0---0---0---0---0----------------------------------------------|
B|--7-7-7-7-7-7-7-7-5-5-5-5-5-5-5-5--------------------------------------------|
G|-----------------------------------------------------------------------------|
D|-----------------------------------------------------------------------------|
A|-----------------------------------------------------------------------------|
D|-----------------------------------------------------------------------------|
(x2)

MAIN RIFF:

(rhythm)
e|--0-0-0-0-0-0-0-0-0-0-0-0-0-0-0-0--------------------------------------------|
B|--5-5-5-5-5-5-5-5-5-5-5-5-5-5-5-5--------------------------------------------|
G|--5-5-5-5-5-5-5-5-5-5-5-5-5-5-5-5--------------------------------------------|
D|-------------------0-0-0-0-0-0-0-0-------------------------------------------|
A|-----------------------------------------------------------------------------|
D|-----------------------------------------------------------------------------|

e|-----------------------------------------------------------------------------|
B|-2-2-2-2-2-2-2-2-5-5-5-5-5-5-5-5---------------------------------------------|
G|-2-2-2-2-2-2-2-2-5-5-5-5-5-5-5-5---------------------------------------------|
D|-0-0-0-0-0-0-0-0-0-0-0-0-0-0-0-0---------------------------------------------|
A|-----------------------------------------------------------------------------|
D|-----------------------------------------------------------------------------|
(x4)

(main riff:)
e|-----------------------------------------------------------------------------|
B|-----------------------------------------------------------------------------|
G|-----11---------11---------11---------11-------------------------------------|
D|--12---12----12---12----12---12----12--12------------------------------------|
A|-----------------------------------------------------------------------------|
D|-----------------------------------------------------------------------------|
(x2)
e|-----------------------------------------------------------------------------|
B|----10---10----------------10---10-------------------------------------------|
G|-11---11---13-----11---11----11---13-----11----------------------------------|
D|---------------------12----------------------12------------------------------|
A|-----------------------------------------------------------------------------|
D|-----------------------------------------------------------------------------|
(x2)

Repeat intro and rhythm part, but the 1st half of main riff changes to:
e|-----------------------------------------------------------------------------|
B|-----------------------------------------------------------------------------|
G|--9p8-9p8-9p8-9p8-9p8-9p8-9p8-9p8-9p8-9p8-9p8-9p8-9p8-9p8-9/11---11----------|
D|------------------------------------------------------------------12---------|
A|-----------------------------------------------------------------------------|
D|-----------------------------------------------------------------------------|

VERSE:

e|---------------------------------------------------------------------------|
B|---------------------------------------------------------------------------|
G|--4-------------------------0----------------------------------------------|
D|--4---------------------------4--------------------------------------------|
A|--2---------------------2--------------------------------------------------|
D|---------------------------------------------------------------------------|
(x2)

Repeat main riff, then verse part again.

e|-----------------------------------------------------------------------------|
B|-----------------------------------------------------------------------------|
G|-----0----0------0----0------------------------------------------------------|
D|----2---2------2----2--2-----------------------------------------------------|
A|--0---3----1-----------------------------------------------------------------|
D|-----------------------------------------------------------------------------|
(x8)

Repeat intro, main riff, rhythm part eventually turns into:

e|-----------------------------------------------------------------------------|
B|-----------------------------------------------------------------------------|
G|--4-4-4-4-4-4-4-4------------------4-4-4-4-4-4-4-4---------------------------|
D|--4-4-4-4-4-4-4-4-0-0-0-0-0-0-0-0-4-4-4-4-4-4-4-4-0-0-0-0-0-0-0-0------------|
A|--2-2-2-2-2-2-2-2-0-0-0-0-0-0-0-0-2-2-2-2-2-2-2-2-0-0-0-0-0-0-0-0------------|
D|-------------------0-0-0-0-0-0-0-0------------------0-0-0-0-0-0-0-0----------|
(x2)

Repeat verse part, fade out.

You'll probably have to listen to it to get the rhythms, distortion, etc. right but that 
pretty much cover it... :]
Добавлено: 05.06.2012
Другие материалы по этой песне:
  • Аккорды и текст

Страница создана 19.03.2012
http://primanota.ru/far/sorrows-end-chords.htm
Привет, Гость.
Предлагаем пройти революционный курс по гитаре.
Подарок от PrimaNota.Ru, забирай!